Bonnie Prince Billy, The Way Tabs, Chords, Lyrics

Bonnie Prince Billy, The Way Tabs, Chords

 SITE MENU
 Request Tabs
 Add/Correct Tabs
 DMCA Policy
 Country Sheet Music
0

BROWSE LYRICS AND TABS BY ARTIST/BAND NAME: SEARCH HERE:
A B C D E F G H I J K L M N O P Q R S T U V W X Y Z #
 

Bonnie Prince Billy - The Way (Chords)


Bonnie Prince Billy CD
Bonnie Prince Billy Sheet music
Bonnie Prince Billy Posters
Transcribed by entspeak
(dismyjunk@hotmail.com)

Capo on the 4th fret...
                                                                                     
E-|---------------------------|---------------------------|---------------------------|---------------------------|
B-|--------2-----2-----2------|--------2-----2-----2------|--------0-----0-----0------|--------3-----3-----3------|
G-|--------2-----2-----2------|--------2-----2-----2------|--------1-----1-----1------|--------2-----2-----2------|
D-|-----2-----2-----2-----2---|-----4-----4-----4-----0---|-----2-----2-----2-----0---|-----0-----0-----0-----0---|
A-|--0------------------------|--4------------------------|--2------------------------|--0------------------------|
E-|---------------------------|---------------------------|---------------------------|---------------------------|

Repeat and then:

E-|---------------------------|
B-|--3-----3-----3-----3------|
G-|--2-----2-----2-----2------|
D-|-----0-----0-----0-----0---|
A-|---------------------------|
E-|---------------------------|


Verse:
Winter comes and snow
I can't marry you, you know
Without you the winter grows
I can't marry you, you know


E-|---------------------------|---------------------------|---------------------------|---------------------------|
B-|--------2-----2-----2------|--------2-----2-----2------|--------0-----0-----0------|--------3-----3-----3------|
G-|--------2-----2-----2------|--------2-----2-----2------|--------1-----1-----1------|--------2-----2-----2------|
D-|-----2-----2-----2-----2---|-----4-----4-----4-----0---|-----2-----2-----2-----2---|-----0-----0-----0-----0---|
A-|--0------------------------|--4------------------------|--2------------------------|--0------------------------|
E-|---------------------------|---------------------------|---------------------------|---------------------------|


At the end of the verse:


E-|---------------------------|
B-|--3-----3-----3-----3------|
G-|--2-----2-----2-----2------|
D-|-----0-----0-----0-----0---|
A-|---------------------------|
E-|---------------------------|

Chorus:
Love me the way I love you
Love me the way I love you

E-|---------------------------|---------------------------|---------------------------|---------------------------|
B-|--------2-----2-----2------|--------0-----0-----0------|--------2-----2-----2------|--------2-----2-----2------|
G-|--------2-----2-----2------|--------0-----0-----0------|--------2-----2-----2------|--------2-----2-----2------|
D-|-----2-----2-----2-----2---|-----0-----0-----0-----0---|-----2-----2-----2-----2---|-----2-----2-----2-----2---|
A-|--0------------------------|--2------------------------|--0------------------------|--0------------------------|
E-|---------------------------|---------------------------|---------------------------|---------------------------|

Humming

E-|---------------------------|---------------------------|---------------------------|---------------------------|
B-|--------0-----0-----0------|--0-----0-----0-----0------|--------2-----2-----2------|--2------------------------|
G-|--------0-----0-----0------|--0-----0-----0-----0------|--------2-----2-----2------|--2------------------------|
D-|-----0-----0-----0-----0---|-----0-----0-----0-----0---|-----2-----2-----2-----2---|---------------------------|
A-|--2------------------------|---------------------------|--0------------------------|---------------------------|
E-|---------------------------|---------------------------|---------------------------|---------------------------|


Take a year in your hand
You can find another man
Let your unloved parts get loved
I will be your man

Love me the way I love you
Love me the way I love you

[solo] using verse guitar pattern

Places you should be afraid
Into the river we will wade

Love me the way I love you
Love me the way I love you


Bonnie Prince Billy Tabs & ChordsBonnie Prince Billy Lyrics



Bonnie Prince Billy Tabs, Tablatures, Chords, Lyrics

Buy Bonnie Prince Billy CD
Bonnie Prince Billy
Buy Bonnie Prince Billy CD

  1. Bonnie Prince Billy - The Way Chords



cowboylyrics.com
All lyrics are property and copyright of their owners. All lyrics provided for educational purposes only.