Bryan Sutton, Blue Night Tabs, Chords, Lyrics

Bryan Sutton, Blue Night Tabs, Chords

 SITE MENU
 Request Tabs
 Add/Correct Tabs
 DMCA Policy
 Country Sheet Music
0

BROWSE LYRICS AND TABS BY ARTIST/BAND NAME: SEARCH HERE:
A B C D E F G H I J K L M N O P Q R S T U V W X Y Z #
 

Bryan Sutton - Blue Night (Tabs)


Bryan Sutton CD
Bryan Sutton Sheet music
Bryan Sutton Posters
Blue Night- Intro 
Guitarist-The mighty Bryan Sutton


-----------0--0h2--2---2--5--2p0--0--0h2p0--2--2p0----------------------
---------3----0----0---0--0--0----0--0------0--0---3--------------------
----2--4------2----2---2--2--2----2--2------2--2------3s4---2-4--4h6p4-2-
--4-------------------------------------------------------4------------
-----------------------------------------------------------------------
-----------------------------------------------------------------------



------------------------------------------------------------
---x-x---------3p2-0----------------------------------------
---x-x---2h3----------2-----1-4-2s4----------2--4-----------
---x-x---2h4-------------4-----------0h1--4-----------------
---x-x---2h4------------------------------------------------
---x-x---2--------------------------------------------------

If u need sound files or any such thing lemme know.Enjoy!


Bryan Sutton Tabs & Chords



Bryan Sutton Tabs, Tablatures, Chords, Lyrics

Buy Bryan Sutton CD
Bryan Sutton
Buy Bryan Sutton CD

  1. Bryan Sutton - Blue Night Tabs
  2. Bryan Sutton - Brown County Breakdown Tabs



cowboylyrics.com
All lyrics are property and copyright of their owners. All lyrics provided for educational purposes only.