Lionel Cartwright, Watched It All On Radio Tabs, Chords, Lyrics

Lionel Cartwright, Watched It All On Radio Tabs, Chords

 SITE MENU
 Request Tabs
 Add/Correct Tabs
 DMCA Policy
 Country Sheet Music
0

BROWSE LYRICS AND TABS BY ARTIST/BAND NAME: SEARCH HERE:
A B C D E F G H I J K L M N O P Q R S T U V W X Y Z #
 

Lionel Cartwright - Watched It All On Radio (Chords)


Lionel Cartwright CD
Lionel Cartwright Sheet music
Lionel Cartwright Posters
Tune 1/2 step down: Eb, G#, C#, F#, Bb, Eb

h - hammer on
p - pull off
/ - slide up
\ - slide down
-----------------------------------------------------------------------------

Intro: E   A E | E   B E

Verse 1
        E                   A       E
I had a six transister when I was a kid
                B
under my pillow i kept it hid
         E                   A            E
When the lights went out and no one could see
                      B             E
Over the airwaves the world came to me

  E   A E | E   B E

Verse 2:
I'd go through the stations 'till i found a game
I knew how the played by the sounds of their names
The sluggers hit homers, those pitchers threw smoke
And I watched it all on my radio


Chorus 1:
       A            E          B          A
At the crack of the bat i knew how far it go
    E                   B          A
And I watched it all on my radio
E                   B         E
I watched it all on my radio


Solo-
-----------------------------------------------------------------------------
-----------------------------------------------------------------------------
-----------------------------------------------------------------------------
-----------------------------------------------------------------------------
-----------2-2---2-2h4-2h4-2-----------2-2--2--------------------------------
---0-0-2h4-----4---------------0-0-2h4--------4p2p0-2--2--4------------------

-----------------------------------------------------------------------------
-----------------------------------------------------------------------------
------------------------------------------4-4--------------------------------
--------------------2-4/6-6\4-2---2-2-4/6-----6\4-2--------------------------
-----------2-2--2-4---------------------------------4-2----------------------
---0-0-2h4----------------------------------------------2-2-0----------------



Verse 3:
When the ballgame was over, the rap-up complete
I'd search through the static 'till i found a beat
The Beatles and Createns, the Stones and the Birds
You should have seen all the groups that I heard

Verse 4:
And on Saturday night when the skies were all clear
a station from Nashville sometimes would appear
The steel guitars and soft southern twang
The stars of the Grand Ole Opery would sing

Chorus 2:
And I had a seat on the very front row
And I watched it all on my radio
I watched it all on my radio

Bridge:
    A                         E
And right about midnight some preacher came on
   B                        E
To tell me what's right; To tell me what's wrong
    A                       E
And there was a test at the sound of the beep
        E                B           A
"It was only a test" the voice would repeat
        E                     B          A
And the National Anthem would sing me to sleep


repeat Verse 1

repeat Chorus 2


Outro:

-----------------------------------------------------------------------------
-----------------------------------------------------------------------------
-----------------------------------------------------------------------------
-----------------------------------------------------------------------------
-----------2-2---2-2h4-2h4-2-----------2-2--2--------------------------------
---0-0-2h4-----4---------------0-0-2h4--------4p2p0-2--2h4p2--0--------------


If You Have any questions, e-mail SLiCk50292@aoil.com


Cartwright Lionel Tabs & ChordsCartwright Lionel Lyrics



Cartwright Lionel Tabs, Tablatures, Chords, Lyrics

Buy Cartwright Lionel CD
Cartwright Lionel
Buy Cartwright Lionel CD

  1. Cartwright Lionel - Give Me His Last Chance Chords
  2. Cartwright Lionel - Leap Of Faith Chords
  3. Cartwright Lionel - My Heart Is Set on You Chords
  4. Cartwright Lionel - Watched It All On Radio Chords



cowboylyrics.com
All lyrics are property and copyright of their owners. All lyrics provided for educational purposes only.