Ry Cooder, Brothers Tabs, Chords, Lyrics

Ry Cooder, Brothers Tabs, Chords

 SITE MENU
 Request Tabs
 Add/Correct Tabs
 DMCA Policy
 Country Sheet Music
0

BROWSE LYRICS AND TABS BY ARTIST/BAND NAME: SEARCH HERE:
A B C D E F G H I J K L M N O P Q R S T U V W X Y Z #
 

Ry Cooder - Brothers (Chords)


Ry Cooder CD
Ry Cooder Sheet music
Ry Cooder Posters
Playing Notes:

/ - slide up
\ - slide down
p - pull off
s - slide between notes
# - note played slightly sharp
* - played without slide

Played in Open D (D A D F# A D from low to high)

   (*
D-|----------2--------------0--------------------------2-----------0--------|
A-|-------0-----0----0-------------------------------0---0------------------|
F#|-----1----------1------6------------------------1--------1----6----------|
D-|---2------------------------0--------------------------------------0-----|
A-|-0-------------------------------------------0---------------------------|
D-|------------------------------0----------4-5-------------------------0---|


                   *)                               (*)
|---------------2--------------------------------------------/7~----/12-12~-|
|-----------0------0--------\5-----------------0--------0-------------------|
|-------------1----------/6--------------/6s5--------1----------------------|
|-----0-----------------------------5---------------------------------------|
|--------0------------------------5---------------0-------------------------|
|-4-5---------------------------5-------------------------------------------|



|-/4--/7-7~----/12s11#s12~---/12-10----------/7-s-5~------------------------|
|-------------------------------------------------------------/8-s-7--------|
|---------------------------------------------------------------------------|
|---------------------------------------0--------------0---0-----------0----|
|----------0--------------------------0------------------0---------------0--|
|-----------------------------------0-----0----------0---------------0-----0|


  
|------------------------------------------------------------/3--2~---/3----|
|---------------------------------------------------------------------------|
|-/8-s-6~-------------------------------------------------------------------|
|-------------0--3--/5~--/5-s-3-s-5--/7----\2-s-3-s-2-p-0-------------------|
|----------------------------------------------------------------0----------|
|-------------0--3--/5~--/5-s-3-s-5--/7----\2-s-3-s-2-p-0-------------------|


  
|-0-----------/3-\2~-------2----/3--0------0-----/3-\2--------/3-s-2--------|
|------------------------0---------------3---------------------------/5~----|
|---------------------------------------------------------------------------|
|---0-------------------------------0--------0------------------------------|
|-----------------0----0-----------------------------0----0-----------------|
|--------0-0----------------------------------------------------------------|


                        (*
|--------------------------------0-----------0-----------0------------0-----|
|--------0----0----0-0------------------------------------------------------|
|-/6-s-5---------------------6-----------5-----------3------------1---------|
|------------------------------0-----------0-----------0------------0-------|
|-----------0--------------7-----------5-----------3------------2-----------|
|------------------------0-----------0-----------0------------0-------------|


                                    *)
|---------------------0-------------0---|
|---------------------------------------|
|-----6----------5--------------3-------|
|-------0----------0--------------0-----|
|---7----------5--------------3---------|
|-0----------0--------------0-----------|


Cooder Ry Tabs & ChordsCooder Ry Lyrics



Cooder Ry Tabs, Tablatures, Chords, Lyrics

Buy Cooder Ry CD
Cooder Ry
Buy Cooder Ry CD

  1. Cooder Ry - Archies Funeral Chords
  2. Cooder Ry - Brothers Chords
  3. Cooder Ry - Dark Is The Night Chords
  4. Cooder Ry - Diaraby Chords
  5. Cooder Ry - Feeling Bad Blues Chords
  6. Cooder Ry - Go Home Girl Chords
  7. Cooder Ry - Great Dream From Heaven Chords
  8. Cooder Ry - Houston In Two Seconds Chords
  9. Cooder Ry - How Can You Keep On Moving Chords
  10. Cooder Ry - I Think Everything Will Work Out Fine Chords
  11. Cooder Ry - Nothing Out There Chords
  12. Cooder Ry - On The Couch Chords
  13. Cooder Ry - Paris Texas Chords
  14. Cooder Ry - Patricia Chords
  15. Cooder Ry - Shes Leaving The Bank Chords
  16. Cooder Ry - Tattler Chords
  17. Cooder Ry - Vigilante Man Chords
  18. Cooder Ry - Why Dont You Try Me Chords



cowboylyrics.com
All lyrics are property and copyright of their owners. All lyrics provided for educational purposes only.