Great Divide, Pour Me A Vacation Tabs, Chords, Lyrics

Great Divide, Pour Me A Vacation Tabs, Chords

 SITE MENU
 Request Tabs
 Add/Correct Tabs
 DMCA Policy
 Country Sheet Music
0

BROWSE LYRICS AND TABS BY ARTIST/BAND NAME: SEARCH HERE:
A B C D E F G H I J K L M N O P Q R S T U V W X Y Z #
 

Great Divide - Pour Me A Vacation (Tabs)


Great Divide CD
Great Divide Sheet music
Great Divide Posters


	/ slide up \ slide down
	po pull off b bend rb release bend
	h hammer on



	E--------------------------------------------
	B--10-10-10--8-8-8---------------------------
	G--11-11-11--9-7---7-------------------------
	D--------------------9-----------------------
	A----------------------10--------------------
	E--------------------------------------------
	
	
	E--------------------------------------------
	B--8/12--12--12--10--8--7h8--7h8-7-----------
	G--------------------------------------------
	D--------------------------------------------
	A--------------------------------------------
	E-------------------------------------------
	

	E----------------------------------------------
	B-------------------------7------10------------
	G-------------------7-9b-----9b-----9rbpo7-----
	D-------7--9--7--9-----------------------------
	A--7/9-----------------------------------------
	E----------------------------------------------
	

	E----------------------------------------------
	B--------10----10------------------------------
	G---7-9b----9b----9rbpo7---7h9-po7-------------
	D-9----------------------9---------------------
	A----------------------------------------------
	E----------------------------------------------
	
	
	E-----------------------------------------------
	B-----------------------------------------------
	G-9brpo7--9--7----------------------------------
	D-----------------------------------------------
	A-----------------------------------------------
	E-----------------------------------------------
	


Great Divide Tabs & Chords



Great Divide Tabs, Tablatures, Chords, Lyrics

Buy Great Divide CD
Great Divide
Buy Great Divide CD

  1. Great Divide - 'Round That Bend Chords
  2. Great Divide - Afterglow Chords
  3. Great Divide - Ain't About To Fall Chords
  4. Great Divide - Alive and Well Chords
  5. Great Divide - Amarillo Windmill Chords
  6. Great Divide - Angels Over Me Chords
  7. Great Divide - Billy Covington Chords
  8. Great Divide - Break In The Storm Chords
  9. Great Divide - Bummin Around Chords
  10. Great Divide - Bummin' Around Chords
  11. Great Divide - College Days Chords
  12. Great Divide - Couple Of Days Chords
  13. Great Divide - Days Go (correct With Lead) Chords
  14. Great Divide - Deliver Us Tabs
  15. Great Divide - Diamond Ring Chords
  16. Great Divide - Dodgers Were in Brooklyn Chords
  17. Great Divide - Dragon's Heart Chords
  18. Great Divide - Eighteen Again Tabs
  19. Great Divide - Floods. Chords
  20. Great Divide - Forgotten How To Fall Chords
  21. Great Divide - Goin For Broke Chords
  22. Great Divide - Gypsy Steel Chords
  23. Great Divide - If Not For You Chords
  24. Great Divide - Jail Burned Down Chords
  25. Great Divide - Let's Get Out Of Here Chords
  26. Great Divide - Life Of An Outlaw Chords
  27. Great Divide - Livin' Like Thanksgivin Chords
  28. Great Divide - Lost In The Night Chords
  29. Great Divide - Moon Is Almost Full Chords
  30. Great Divide - Never Could Chords
  31. Great Divide - Nowhere Woman Chords
  32. Great Divide - Other Side Of Midnight Chords
  33. Great Divide - Out Of Love Chords
  34. Great Divide - Over The Rain Chords
  35. Great Divide - Over The Rain (capo) Chords
  36. Great Divide - Pour Me A Vacation Tabs
  37. Great Divide - Pour Me A Vacation(somewhat Corrected) Chords
  38. Great Divide - Remain Chords
  39. Great Divide - San Isabella Chords
  40. Great Divide - Scared Of Heights Chords
  41. Great Divide - Something Wicked (corrected) Chords
  42. Great Divide - Straight Off Into You Chords
  43. Great Divide - Used To Be Chords
  44. Great Divide - When You Loved Him Chords
  45. Great Divide - Wylie E. Coyote Chords
  46. Great Divide - Yesterday Road Chords
  47. Great Divide - Yesterday Road - Fiddle Tabs



cowboylyrics.com
All lyrics are property and copyright of their owners. All lyrics provided for educational purposes only.