, Kick Off Your Boots Tabs, Chords, Lyrics

, Kick Off Your Boots Tabs, Chords

 SITE MENU
 Request Tabs
 Add/Correct Tabs
 DMCA Policy
 Country Sheet Music
0

BROWSE LYRICS AND TABS BY ARTIST/BAND NAME: SEARCH HERE:
A B C D E F G H I J K L M N O P Q R S T U V W X Y Z #
 

- Kick Off Your Boots (Tabs)


CD
 Sheet music
Posters
Intro and Chorus: (play continuously throughout)
e|-----------------------------------------------------------
b|-----------------------------------------------------------
g|------------------------------repeat-----------------------
d|-------------4-4--2-2-2-2----------------------------------
a|-----------2-2-2--0-0-0-0----------------------------------
E|-0-3b-0-4--------------------------------------------------

Verses:

e|-----------------------------------------------------------
b|-----------------------------------------------------------
g|-----------------------------------repeat------------------
d|--------4-4---6-6---4--2-2---------------------------------
a|--2-2---2-2---4-4---2--0-0---------------------------------
E|--0-0-----------------------0-3b --------------------------


hey ya'll i know this isn't 100% correct but i think its fairly close. I 
haven't done the actual tabbing in the verses or the solo but i am working on 
it. The timing can be a little tricky in the verses and chorus but playing 
along with the song helps a lot.  


Hawg Wild Tabs & Chords



Hawg Wild Tabs, Tablatures, Chords, Lyrics

Buy Hawg Wild CD
Hawg Wild
Buy Hawg Wild CD

  1. Hawg Wild - Kick Off Your Boots Tabs



cowboylyrics.com
All lyrics are property and copyright of their owners. All lyrics provided for educational purposes only.