Jake Mathews, He Never Learned How Tabs, Chords, Lyrics

Jake Mathews, He Never Learned How Tabs, Chords

 SITE MENU
 Request Tabs
 Add/Correct Tabs
 DMCA Policy
 Country Sheet Music
0

BROWSE LYRICS AND TABS BY ARTIST/BAND NAME: SEARCH HERE:
A B C D E F G H I J K L M N O P Q R S T U V W X Y Z #
 

Jake Mathews - He Never Learned How (Tabs)


Jake Mathews CD
Jake Mathews Sheet music
Jake Mathews Posters
Jake Mathews - He Never Learned How
(Rivers Rutherford, Houston Robert) 

This song starts with capo 1st fret, and then changes to capo 2nd in the middle.
In the intro the S means strum, I've added a sound byte.

Capo 1

Intro
                  S
e--------------------------------------0---------
B-----------------1s3----------------------------
G--2s4-2----------0-----------2h4p2-4s6--6s4-2---
D-------3p2-0-----2s4---2h4----------------------
A------------2-0--3s5-5------------0-------------
E------------------------------------------------

   S               S               S
e--2----0-2-5--3-2-2h3-------------2p0-----------0-----0---------------0-
B--3---3-----------3--3--0-3s5-5s7-x---3-2-3---2----3---3-----------0----
G--2--2------------2---------------2-----2---0-------2---0-2-0-------2---
D--0---------------0---------------2-----------4---4------4---4-2-0------
A----------------------------------0-------------------------------4-----
E------------------------------------------------------------3-----------

    D                      A
His blood runs cold at the Astrodome
      D                   D7            G
As he draws a bull they call the blue tornado
A                     A7
Two thousand pounds of hell's own hounds 
                      D              A
Who cut his teeth on cowboy's bones

So he cinches up and he eases in
And loses somewhere half way through the second spin
And in a dusty haze remembers the glory days
That will never be again


Chorus
        A        D
Now the rodeo is over
 A                        D
The lights have all dimmed down
G                    D
On another weathered face 
        D/C#            Bm  Bm/F# Bm/A Bm Bm/F# Bm/A
In some lonely old cow town
       Em
And he ought to let go
 A                   D
But he never learned how

key change D - D
see notes below

Now there she stands by the holding pens
Holding hands with this year's bet for champion
He keeps a poker face but in some secret place
It's killing him

He tips hat as he walks on by
And finds it strange that she can't look him in the eye
After all the times she told him that she loved him
When he was riding high

Chorus

Bridge
Bm                                     G
But something in his heart just has to try
A                                    D    D/C#
To give her one more record breakin' ride
Bm                                           G
And it hurts like hell that he don't feel the pain
    G                              A
And for a moment he's a hero once again


Now there he lays in the center ring
She's calling out his name but he don't hear a thing
Just the distant sound of a Sunday crowd
As the angels start to sing

Chorus 2
Now the rodeo is over
The lights have all dimmed down
On another weathered face 
In some lonely old cow town
And he finally let go
Cause he never learned how

Note
Key change
 D                           D#
-2-2-0-0------------------------- 
---------3-3--Move---2-0--------- 
-2-2-0-0------capo-------2-0--2-- 
---------4-4---to---2-0------0--- 
--------------2nd-------4--------
---------------------------------
 



Jake Mathews Tabs & Chords



Jake Mathews Tabs, Tablatures, Chords, Lyrics

Buy Jake Mathews CD
Jake Mathews
Buy Jake Mathews CD

  1. Jake Mathews - Arizona On My Mind Chords
  2. Jake Mathews - He Never Learned How Tabs
  3. Jake Mathews - If I Had It My Way Chords
  4. Jake Mathews - Kings For A Day Chords
  5. Jake Mathews - Signs Of You Everywhere Chords
  6. Jake Mathews - That's Why They Call It Cheating Chords



cowboylyrics.com
All lyrics are property and copyright of their owners. All lyrics provided for educational purposes only.