Jimmie Rodgers, Walking By Myself Tabs, Chords, Lyrics

Jimmie Rodgers, Walking By Myself Tabs, Chords

 SITE MENU
 Request Tabs
 Add/Correct Tabs
 DMCA Policy
 Country Sheet Music
0

BROWSE LYRICS AND TABS BY ARTIST/BAND NAME: SEARCH HERE:
A B C D E F G H I J K L M N O P Q R S T U V W X Y Z #
 

Jimmie Rodgers - Walking By Myself (Tabs)


Jimmie Rodgers CD
Jimmie Rodgers Sheet music
Jimmie Rodgers Posters
Walking By Myself - Tab
Jimmy Rodgers


-------------------------------------0----------------------------------0h2-3-3--
----------0--3---0---------------0-0---3-3-3-3-0-3-3-0-3-3-0-0----1/2------------
------0h1----------4\2-----2-1-1-------------------------------------------------
---------------2-------1-1-------------------2------------------------2----------
---------------------------------------------------------------------------------
--0--------------------------------------0----------------------0----------------

-----------------------0-----------------------------------------------------
--3-----0--------0-------0-0---0------------------------3-3-0---3-0---3-0-0--
----4\2-2-0h1------2-0-1--------------/-----------\-----------1-----1--------
--------------2----------------------/---Play 3X---\-------------------------
-------------------------2---2---2---2-2-4-4-2-2-4-4-------------------------
-------------------------------------0-0-0-0-0-0-0-0--0---0-----0-----0------

-----------------------------------------0--------------0--------0-0--
------------------3-0--------------0-0-2-----0-0-0------0----0-2-0-0--
----------------------4\2-0-----------------------------1------2-0-1--
--2-2-4-4-2-2-4-4-----------2---------------------------2------2-2-2--
--0-0-0-0-0-0-0-0----------------2-------------2---2-2--2--------2-2--
-------------------------------0-0-0---0---0------------0--------0-0--

---------------------------------------------------------0--
--0-----0-----0-----0------0---0-----0-0-0--------0------3--
----0-1---0-1---0-1----------2---2---2-2-2--------1------4--
----------------------2--2-----------1-1-1--------0------0--
-------------------------------------2-2-2----2-4-----------
--------------------------------------------0----------0----


Jimmie Rodgers Tabs & Chords



Jimmie Rodgers Tabs, Tablatures, Chords, Lyrics

Buy Jimmie Rodgers CD
Jimmie Rodgers
Buy Jimmie Rodgers CD

  1. Jimmie Rodgers - Blue Yodel No.1(t For Texas) Chords
  2. Jimmie Rodgers - California Bluea (blue Yodel No. 4) Chords
  3. Jimmie Rodgers - Don't Fence Me In(harp) Tabs
  4. Jimmie Rodgers - Mule Skinner Blues(harp) Tabs
  5. Jimmie Rodgers - Peach Pickin Time In Georgia Chords
  6. Jimmie Rodgers - The Brakeman's Blues Chords
  7. Jimmie Rodgers - Walking By Myself Tabs



cowboylyrics.com
All lyrics are property and copyright of their owners. All lyrics provided for educational purposes only.