, Bluegrass Boogie Tabs, Chords, Lyrics

, Bluegrass Boogie Tabs, Chords

 SITE MENU
 Request Tabs
 Add/Correct Tabs
 DMCA Policy
 Country Sheet Music
0

BROWSE LYRICS AND TABS BY ARTIST/BAND NAME: SEARCH HERE:
A B C D E F G H I J K L M N O P Q R S T U V W X Y Z #
 

- Bluegrass Boogie (Tabs)


CD
 Sheet music
Posters
  G          bluegrass boogie                             
E-3--------------------------------------
B-0--------------------------------------
G-0--------------------------------------
D-0----0-2-3-2-0----0-2-3-2-0------------
A-2---2---------2--2---------2-----------
E-3--3-----------3------------3----------


   C
E----------------------------------------
B----------------------------------------
G-----0-3-2-3-0---0-2-3-2-0--------------
D----2---------2-2---------2-------------
A---3-----------3-----------3------------
E----------------------------------------


    G
E-----------------------------------------
B------------------------------------0----
G------------------------------------h----
D----0-2-3-2-0---0-2-3-2-0----------0-2---
A---2---------2-2---------2-3-2-0--3------
E--3-----------3-----------------3--------


Lester Flatt Tabs & Chords



Lester Flatt Tabs, Tablatures, Chords, Lyrics

Buy Lester Flatt CD
Lester Flatt
Buy Lester Flatt CD

  1. Lester Flatt - Bluegrass Boogie Tabs
  2. Lester Flatt - Who Will Sing For Me Chords



cowboylyrics.com
All lyrics are property and copyright of their owners. All lyrics provided for educational purposes only.