Mel Mcdaniel, Stand Up Tabs, Chords, Lyrics

Mel Mcdaniel, Stand Up Tabs, Chords

 SITE MENU
 Request Tabs
 Add/Correct Tabs
 DMCA Policy
 Country Sheet Music
0

BROWSE LYRICS AND TABS BY ARTIST/BAND NAME: SEARCH HERE:
A B C D E F G H I J K L M N O P Q R S T U V W X Y Z #
 

Mel Mcdaniel - Stand Up (Chords)


Mel Mcdaniel CD
Mel Mcdaniel Sheet music
Mel Mcdaniel Posters

Stand up
By: Mel McDaniel

Intro solo:  Play A all the way except chorus (play whole thing twice)
 A		A		A		A
|---------------------------  |------------------------
|---------------------------  |------------------------
|---------------------------  |------------------------
|---------------------------  |------------------------
|-0-0-------0-3(4)-0------0-  |-0-0-------0-3(4)-0---0-
|-----0-2-4----------3(4)---  |-----0-2-4----------3---

A					A		A
Ever had a hot date, one a those can't wait, things go a little too far
A				A
In the middle of a good night have you ever got right
	A		A
In the back seat of your car

Chorus:
A			A			A
I said stand up, have you ever been there, stand up, identify
A			A		       D     A
Stand up, tell us all about it, stand up, testify

(intro solo once through)
A			A			A
Ever met a woman, lkate night roamin', party til your money was gone
A					A
A smiling Mona Lisa loaded up your visa and took a bartender home

chorus
(play 1st part of intro solo, then solo below, then intro solo once
through)

|-----5-5-5-5--------5-5-5-5----7(8)-7-5---5-5-5-7(8)-
|-5/7---------7\-5/7---------7\----------7------------
|-----------------------------------------------------
|-----------------------------------------------------
|-----------------------------------------------------
|-----------------------------------------------------

|-----5-5-5-5--------5-5-5-5----7(8)-7-5---5-5-7-5\---
|-5/7---------7\-5/7---------7\----------7------------
|-----------------------------------------------------
|-----------------------------------------------------
|-----------------------------------------------------
|-----------------------------------------------------
A				A			A
Thought I was a he-man, do it just for me man, knew just what to do
	A				A			A
Thought I was a hero, she rated me a zero, said honey child you ain't
through

chorus-play intro while singing chorus twice and fade
							Jason A. Wendtland


Mcdaniel Mel Tabs & Chords



Mcdaniel Mel Tabs, Tablatures, Chords, Lyrics

Buy Mcdaniel Mel CD
Mcdaniel Mel
Buy Mcdaniel Mel CD

  1. Mcdaniel Mel - Anger And Tears Chords
  2. Mcdaniel Mel - Babys Got Her Bluejeans On Chords
  3. Mcdaniel Mel - Babys Got Her Bluejeans On 2 Chords
  4. Mcdaniel Mel - Hello Daddy Chords
  5. Mcdaniel Mel - Let It Roll Chords
  6. Mcdaniel Mel - Louisiana Saturday Night Chords
  7. Mcdaniel Mel - Real Good Feel Good Song Chords
  8. Mcdaniel Mel - Stand Up Chords
  9. Mcdaniel Mel - Take Me To The Country Chords
  10. Mcdaniel Mel - The Gunfighters Song Chords



cowboylyrics.com
All lyrics are property and copyright of their owners. All lyrics provided for educational purposes only.