Cory Morrow, Drink One More Round Tabs, Chords, Lyrics

Cory Morrow, Drink One More Round Tabs, Chords

 SITE MENU
 Request Tabs
 Add/Correct Tabs
 DMCA Policy
 Country Sheet Music
0

BROWSE LYRICS AND TABS BY ARTIST/BAND NAME: SEARCH HERE:
A B C D E F G H I J K L M N O P Q R S T U V W X Y Z #
 

Cory Morrow - Drink One More Round (Chords)


Cory Morrow CD
Cory Morrow Sheet music
Cory Morrow Posters

Song:  Drink One More Round
Artist:  Cory Morrow (with Pat Green and Owen Temple)
Album:  The Man That Iíve Been

Tabbed by:    Daniel Shanklin (pokejabba@yahoo.com)

Comments:  This is my very first tab that I have released yet, though not my first
           written tab.  It was fairly easy, and it's a great country song.  I'm
           not even a big country fan, but it's a catchy tune and sure to be a big
           hit for any country fan.

Tab Notes: First off, you should know that there's a simplified chord version at
           the bottom, but I would suggest looking over the top TAB portion first
           because that's where you'll find the riffs, and other licks. There's
           alot of palm mutes in country, and this song is not an exception.
           Just listen to the song and you'll hear 'em.  Also, before Cory strikes
           each chord, he hits the lowest fingered string once, and that's what
           makes the muted bass sound before every chord.  It's very rythmic, so
           it sounds like (LowNote)-(Chord)-(LowNote)-(Chord).  You'll get it if
           you just listen to the song.  Also, the D-minor in this song is Cory's
           special version of Dm, so look at the chord key just below this
           paragraph.  Lastly, notes in Parens () are label for tonality, so
           so listen to the song to hear how to play them.  Please e-mail any
           corrections you may have to me, Daniel Shanklin (pokejabba@yahoo.com).
                                      Thanks, and happy strumming!!

==================
=                =
=  Chord Index   =
=                =
=  G    320033   =
=  F    133211   =
=  C    x32010   =
=  Dm*  xx0031   =
=  G*   355433   =
=  F#   244322   =
=  C*   870088   =
=                =
==================


******************
* Intro / Riff 1 *
******************

    C                           G
e |---------------------------------------|
B |---------------------------------------|
G |---------0---0h2-0-------0-------------|
D |-2---0h2-------------0h2-0-------------|
A |-3----------------------------------0-2|
E |-----------------------------3----3----|

         F              C
e |------------------------------------|
B |------------------------------------|
G |----------0---------------(0)(0)----|
D |0-2-0-----2--3-2-0---------2--0-(0)-|
e |------3------------2-3-----3--2--3--|
e |-------------------------3-------5--|


*********
* Verse *
*********

        G     G     G     G     F     F     C     C
e |-----3-----3-----3-----3-----1-----1-----0-----0--|
B |-----3-----3-----3-----3-----1-----1-----1-----1--|
G |-----0-----0-----0-----0-----2-----2-----0-----0--|
D |-----0-----0-----0-----0-----3-----3-----2-----2--|
A |-----2-----2-----2-----2-----3-----3--3--3--3--3--|
E |--3--3--3--3--3--3--3--3--1--1--1--1--------------|


        G     G     G     G     F     F     C     C
e |-----3-----3-----3-----3-----1-----1-----0-----0--|
B |-----3-----3-----3-----3-----1-----1-----1-----1--|
G |-----0-----0-----0-----0-----2-----2-----0-----0--|
D |-----0-----0-----0-----0-----3-----3-----2-----2--|
A |-----2-----2-----2-----2-----3-----3--3--3--3--3--|
E |--3--3--3--3--3--3--3--3--1--1--1--1--------------|


        F     F     C     C     G     G     C     C
e |-----1-----1-----0-----0-----3-----3-----0-----0--|
B |-----1-----1-----1-----1-----3-----3-----1-----1--|
G |-----2-----2-----0-----0-----0-----0-----0-----0--|
D |-----3-----3-----2-----2-----0-----0-----2-----2--|
A |-----3-----3--3--3--3--3-----2-----2--3--3--3--3--|
E |--1--1--1--1--------------3--3--3--3--------------|

        F     F     G     G     C     C (Dm*)
e |-----1-----1-----3-----3-----0-----0--3-----------|
B |-----1-----1-----3-----3-----1-----1--1-----------|
G |-----2-----2-----0-----0-----0-----0--0-----------|
D |-----3-----3-----0-----0-----2-----2--0-----------|
A |-----3-----3-----2-----2--3--3--3--3--------------|
E |--1--1--1--1--3--3--3--3--------------------------|





**********
* Chorus *
**********

        C     C     C     C     G     G     G  G* F#
e |-----0-----0-----0-----0-----3--------------3--2--|
B |-----1-----1-----1-----1-----3--------------3--2--|
G |-----0-----0-----0-----0-----0--------------4--3--|
D |-----2-----2-----2-----2-----0--------------5--4--|
A |--3--3--3--3--3--3--3--3-----2--0--1--2-----5--4--|
E |--------------------------3--3-----------3--3--2--|


     F  F     F     G     G     C     C     C
e |--1--1-----1-----3-----3-----0-----0-----0--------|
B |--1--1-----1-----3-----3-----1-----1-----1--------|
G |--2--2-----2-----0-----0-----0-----0-----0--------|
D |--3--3-----3-----0-----0-----2-----2-----2--------|
A |--3--3-----3-----2-----2--3--3--3--3--3--3--0--2--|
E |--1--1--1--1--3--3--3--3--------------------------|


        C     C     C     C     G     G     G  G* F#
e |-----0-----0-----0-----0-----3--------------3--2--|
B |-----1-----1-----1-----1-----3--------------3--2--|
G |-----0-----0-----0-----0-----0--------------4--3--|
D |-----2-----2-----2-----2-----0--------------5--4--|
A |--3--3--3--3--3--3--3--3-----2--0--1--2-----5--4--|
E |--------------------------3--3-----------3--3--2--|


     F  F     F     G     G
e |--1--1-----1-----3-----3--|
B |--1--1-----1-----3-----3--|
G |--2--2-----2-----0-----0--| Then Immediately Riff 1
D |--3--3-----3-----0-----0--|
A |--3--3-----3-----2-----2--|
E |--1--1--1--1--3--3--3--3--|


********************************
* Fiddle and Slide Guitar Solo *
********************************

During this solo, Cory just plays
the verse chords, but at the end
of the solo, there's a little riff
played by Cory that goes like this:

e |------------------------|
B |------------------------|
G |--------------(0)(0)----|
D |-3-2-0---------2--0-(0)-|
e |-------2-3-----3--2--3--|
e |-------------3-------5--|


*********
* Outro *
*********

The outro is just a transposed G chord
in root C, and it's played like this:
     C*
e |--8---|
B |--8---|
G |--0---|
D |--0---|
A |--7---|
E |--8---|





**************
* Song Order *
**************

Intro       x1
Verse       x1
Chorus      x1
Riff 1      x1
Verse       x1
Chorus      x1
Riff 1      x1
Solo        x1
Verse       x1
Chorus      x1
Riff 1      x1
Outro       x1




********************************************************************
********************************************************************
********************************************************************
*****************                              *********************
*****************        Chord Version         *********************
*****************                              *********************
********************************************************************
********************************************************************
********************************************************************



*********
* Intro *
*********

Cory sings:

G                         F             C
Iíve been a drifter, ever since I could walk

G                            F                  C
Iíve been a connoisseur of beer since I could talk

F               C     G             C
My momma told me son, liquor ainít no good

F                     G              C     (Dm*)
Ahhh, just another thing I never understood



**********
* Chorus *
**********
                  C         
So Drink one more round on me

               G         G*  F#
Letís sing an old melody

F                      G                   C         G
Hold your drinks up high, and toast the night

           C                    G                 G*  F#
Hold your baby strong, help me sing that old song

F                        G                   C
I think that one more drink, might do me right

**********
* Riff 1 *
**********


Pat sings:

   G                                         F          C
I like to spend my days, floating down the Guadalupe River


 G
Drink a cold case of Lone Star beer

F                 C	
While my body shivers

F                  C                 G                 C
At the end of the day, we stumble in to the nearest bar

     F                           G                              C  
We hang our pictures on the wall so youíll think that we are stars
 (Are we stars?  Oh yeah!)


**********
* Chorus *
**********


**********
* Riff 1 *
**********

********
* Solo *
********


Owen sings:
  
  G                           F           C
Iíve woken up, many mornings next to a coyote

G                                F            C
Had to gnaw my arm off, Lord, I hit the door running

F               C   G                         C
Itís a damn miracle, all that weíve lived through

F          G                    C
Anyone like another round or two


**********
* Chorus *
**********

**********
* Riff 1 *
**********

*********
* Outro *
*********


Morrow Cory Tabs & ChordsMorrow Cory Lyrics



Morrow Cory Tabs, Tablatures, Chords, Lyrics

Buy Morrow Cory CD
Morrow Cory
Buy Morrow Cory CD

  1. Morrow Cory - (Love Me) Like You Used To Do Chords
  2. Morrow Cory - 21 Days Chords
  3. Morrow Cory - A Better Man Chords
  4. Morrow Cory - All Over Again Chords
  5. Morrow Cory - All Said And Done Chords
  6. Morrow Cory - Always And Forever Chords
  7. Morrow Cory - Angela Chords
  8. Morrow Cory - Beat Of Your Heart Chords
  9. Morrow Cory - Beer Tabs
  10. Morrow Cory - Better Than Being in Love With You Chords
  11. Morrow Cory - Big City Stripper Chords
  12. Morrow Cory - Big City Stripper 2 Chords
  13. Morrow Cory - Broken Picture Frame Chords
  14. Morrow Cory - Carnival Ride Chords
  15. Morrow Cory - Drink One More Round Chords
  16. Morrow Cory - Drinkin' Alone Chords
  17. Morrow Cory - Fade Away Chords
  18. Morrow Cory - Favorite Kind Of Lonesome Chords
  19. Morrow Cory - Friend Of The Devil Chords
  20. Morrow Cory - Front Porch Song Chords
  21. Morrow Cory - Gettin' Ready To Rain Chords
  22. Morrow Cory - Goin Straight To Hell Chords
  23. Morrow Cory - Good Intentions Chords
  24. Morrow Cory - Gtmo Blues Chords
  25. Morrow Cory - He Carries Me Chords
  26. Morrow Cory - Heart Of Fire Chords
  27. Morrow Cory - Hold Us Together Chords
  28. Morrow Cory - How Was The West Won Chords
  29. Morrow Cory - I Dont Like To Drink Alone Chords
  30. Morrow Cory - I'll Go On Downtown Chords
  31. Morrow Cory - I'm Not Comin' Home Tonight Tabs
  32. Morrow Cory - Id Have To Be Crazy Chords
  33. Morrow Cory - Im Going Straight To Hell Chords
  34. Morrow Cory - In Spite Of Spite Chords
  35. Morrow Cory - Just Along For The Ride Chords
  36. Morrow Cory - Let It Roll (with Intro) Chords
  37. Morrow Cory - Light On The Stage Chords
  38. Morrow Cory - Live Forever Chords
  39. Morrow Cory - Lord, You Devil Chords
  40. Morrow Cory - Love Finds Everyone Chords
  41. Morrow Cory - Love Me / Like You Used To Do Chords
  42. Morrow Cory - Misty Shade Of Blue Chords
  43. Morrow Cory - More Than Perfect Chords
  44. Morrow Cory - My Baby And Me Chords
  45. Morrow Cory - My Way Home Chords
  46. Morrow Cory - My Way Home (correct) Chords
  47. Morrow Cory - Nashville Blues Chords
  48. Morrow Cory - Not Comin Home Tonight Chords
  49. Morrow Cory - Nothin' I Wouldn't Do Chords
  50. Morrow Cory - Nothing I Wouldnt Do Chords
  51. Morrow Cory - Outside The Lines Chords
  52. Morrow Cory - Radiates Chords
  53. Morrow Cory - Ramblin' Man Chords
  54. Morrow Cory - Restless Girl Chords
  55. Morrow Cory - Ride Away Tabs
  56. Morrow Cory - Running Around On Me Chords
  57. Morrow Cory - Running Around On Me 2 Chords
  58. Morrow Cory - Shame On Me Chords
  59. Morrow Cory - Shame On Me 2 Chords
  60. Morrow Cory - She Breaks My Heart Chords
  61. Morrow Cory - She Don't Know Where Shes Going Chords
  62. Morrow Cory - Stayin Out Late Chords
  63. Morrow Cory - Take Me Away Chords
  64. Morrow Cory - Texas Bound Train Chords
  65. Morrow Cory - Texas Time Travelin Chords
  66. Morrow Cory - The Man That Ive Been Chords
  67. Morrow Cory - The Preacher Chords
  68. Morrow Cory - The Songwriter's Lament Chords
  69. Morrow Cory - The Way I Do Chords
  70. Morrow Cory - The Way Things Used To Be Chords
  71. Morrow Cory - Will You Ever Know Chords
  72. Morrow Cory - Worth It Chords
  73. Morrow Cory - Wrapped Up In Your Love Chords
  74. Morrow Cory - You Don't Really Love Me Chords



cowboylyrics.com
All lyrics are property and copyright of their owners. All lyrics provided for educational purposes only.