Jake Owen, Don't Think I Can't Love You (lead) Tabs, Chords, Lyrics

Jake Owen, Don't Think I Can't Love You (lead) Tabs, Chords

 SITE MENU
 Request Tabs
 Add/Correct Tabs
 DMCA Policy
 Country Sheet Music
0

BROWSE LYRICS AND TABS BY ARTIST/BAND NAME: SEARCH HERE:
A B C D E F G H I J K L M N O P Q R S T U V W X Y Z #
 

Jake Owen - Don't Think I Can't Love You (lead) (Tabs)


Jake Owen CD
Jake Owen Sheet music
Jake Owen Posters
Key:
bh = bend & hold
br = bend & release
p  = pull off
h  = hammer on
~  = vibrato

Intro:
e--------------------------------------------------------------------------------------------
B--------11-13bh(15)--13(15)--13(15)--13(15)r--13b(15)-13br(15)--11-11---11--13b(15)---------
G--10-12-------------------------------------------------------------------------------------
D-------------------------------------------------------------------------------------x-12\--
A--------------------------------------------------------------------------------------------
E--------------------------------------------------------------------------------------------

e--------------------------------------------------------------------------------------------
B--14b(16)---14-13-11--------13----11----------11--------------------------------------------
G----------------------10-12----12-------10h12----12p10-----------------7~~------------------
D-------------------------------------------------------12\10--8--8h10--8~~------------------
A--------------------------------------------------------------------------------------------
E--------------------------------------------------------------------------------------------

Verse 1:
  I learned the hard way real early in life, 
  that money sure don't grow on trees
e---------------------------------------------------------------------------------------------
B---------------------------------------------------------------------------------------------
G----------------------------------------5br(6)---5-3------------------------------------------
D--------------------------------------5------------------------------------------------------
A---------------------------------------------------------------------------------------------
E---------------------------------------------------------------------------------------------

  And there's a few things that a dollar can't buy.
  The best things in life, they come free.
e---------------------------------------------------------------------------------------------
B-------------------------------------------6/8--6--------------------------------------------
G---------------------------------------------------5br(6)--3--3h5p3--------------------------
D---------------------------------------------------------------------------------------------
A---------------------------------------------------------------------------------------------
E---------------------------------------------------------------------------------------------

Chorus:
  Girl I can't buy you a big diamond ring
  No house on a hill full of life's finer things
  I'll tell you right now there's a whole lot
  That I just can't do, but baby don't think I can't love you

Turnaround:
e---------------------------------------------------------------------------------------------------------
B--------11-13bh(15)--13(15)--13(15)--13(15)r---13b(15)--13br(15)--11-11----------------------------------
G--10-12---------------------------------------------------------------------12-10------------------------
D----------------------------------------------------------------------------------12\10-8-10p8--10b(12)--
A---------------------------------------------------------------------------------------------------------
E---------------------------------------------------------------------------------------------------------

Verse 2:
 And when I get home after workin all day
 I'm beat down, girl I'm dead on my feet
e-----------------------------------------------------------------------------------------
B-----------------------------------------------------------------------------------------
G------------------------------------------12\10-----------------10-----------------------
D-------------------------------------------------12/10p8---8h10----8---------------------
A-----------------------------------------------------------------------------------------
E-----------------------------------------------------------------------------------------
 But as tired as I am, if you wanna play
e-----------------------------------------------------------------------------------------
B------------------------------------------6/8\6------------------------------------------
G------------------------------------------5/7\5p3---3/5~---------------------------------
D--------------------------------------------------5--------------------------------------
A-----------------------------------------------------------------------------------------
E-----------------------------------------------------------------------------------------
 Well playing sound real good to me
e-----------------------------------------------------------------------------------------
B-------------------------------------------------------11----11-11---11--11--------------
G-------------------------------------------10h12--10-----10------------10----------------
D----------------------------------------12-----------------------------------------------
A-----------------------------------------------------------------------------------------
E-----------------------------------------------------------------------------------------

Chorus:
  Girl I can't buy you a big diamond ring
  No house on a hill full of life's finer things
  I'll tell you right now there's a whole lot
  That I just can't do, but baby don't think I can't love you

Solo
e----13--13--13--13---------13------13---------------13--------13---------------------------------
B----13--11--11--13bh(15)---13(15)--13(15)--13(15)r--13bh(15)--13(15)r----11-11---11--13bh(15)-----
G-------------------------------------------------------------------------------------------------
D-------------------------------------------------------------------------------------------------
A-------------------------------------------------------------------------------------------------
E-------------------------------------------------------------------------------------------------

e--------13/15--15/13----13-11-13----------------------------------------------------------------- 
B-13(15)-------------------------14-13-11-----11--13b(15)rp11-13b(15)rp11-13b(15)rp11-13b(15)rp11- 
G------------------------------------------12----------------------------------------------------- 
D------------------------------------------------------------------------------------------------- 
A------------------------------------------------------------------------------------------------- 
E-------------------------------------------------------------------------------------------------

e--------13---------------
B-13bh(15)-13(15)r-11~~---
G-------------------------
D-------------------------
A-------------------------
E-------------------------

The outro is almost identical to the intro just use that as a reference.  Also, there's a small lead 
lick in the chorus after he sings the line "I'll tell you right now there's a whole lot that I just 
can't do" that I didn't include.  It's pretty hard to hear, but I would recommened a slide of some 
sort between the 4 and 5 chords (D# and F).


Owen Jake Tabs & ChordsOwen Jake Lyrics



Owen Jake Tabs, Tablatures, Chords, Lyrics

Buy Owen Jake CD
Owen Jake
Buy Owen Jake CD

  1. Owen Jake - 8 Second Ride Chords
  2. Owen Jake - Alone With You Chords
  3. Owen Jake - Alone With You (lead) Tabs
  4. Owen Jake - Always Be My Angel Chords
  5. Owen Jake - Anything For You Chords
  6. Owen Jake - Anywhere With You Chords
  7. Owen Jake - Apple Pie Moonshine Chords
  8. Owen Jake - Barefoot Blue Jean Night Chords
  9. Owen Jake - Barefoot Blue Jean Night (tab) Chords
  10. Owen Jake - Beachin' Chords
  11. Owen Jake - Cherry On Top Chords
  12. Owen Jake - Damn Chords
  13. Owen Jake - Days Of Gold Chords
  14. Owen Jake - Don't Think I Can't Love You Chords
  15. Owen Jake - Don't Think I Can't Love You (lead) Tabs
  16. Owen Jake - Easy Does It Chords
  17. Owen Jake - Eat, Sleep, Don't Drink Chords
  18. Owen Jake - Eight Second Ride Chords
  19. Owen Jake - Eight Second Ride (lead) Chords
  20. Owen Jake - Eight Second Ride (tab) Chords
  21. Owen Jake - Every Reason I Go Back Chords
  22. Owen Jake - Ghosts Chords
  23. Owen Jake - Green Bananas Chords
  24. Owen Jake - Hard Not To Love You Chords
  25. Owen Jake - Heaven Chords
  26. Owen Jake - I Ain't The One Who Said Goodbye Chords
  27. Owen Jake - I Can't Be Alone With You Chords
  28. Owen Jake - I Like You A Lot Chords
  29. Owen Jake - Journey Of Your Life Chords
  30. Owen Jake - Keepin' It Country Chords
  31. Owen Jake - Kiss You Good Morning Chords
  32. Owen Jake - Long Night With You Chords
  33. Owen Jake - Nothing Grows In Shadows Chords
  34. Owen Jake - Pass A Beer Chords
  35. Owen Jake - Places To Run Chords
  36. Owen Jake - Settin' The World On Fire Chords
  37. Owen Jake - Something About A Woman Chords
  38. Owen Jake - Startin' With Me Chords
  39. Owen Jake - Summer Jam (featuring Florida Georgia Line) Chords
  40. Owen Jake - Sure Feels Right Chords
  41. Owen Jake - Tell Me Chords
  42. Owen Jake - Tell Me (correct) Chords
  43. Owen Jake - Tell Me 2 Chords
  44. Owen Jake - The Bad In Me Chords
  45. Owen Jake - The Bottle And Me Chords
  46. Owen Jake - The One That Got Away Chords
  47. Owen Jake - What We Ain't Got Chords
  48. Owen Jake - Who Said Whiskey / Was Meant to Drink a Woman Away Chords
  49. Owen Jake - Yee Haw Chords
  50. Owen Jake - You Can Thank Dixie Chords



cowboylyrics.com
All lyrics are property and copyright of their owners. All lyrics provided for educational purposes only.