Robert Plant, Calling to You Tabs, Chords, Lyrics

Robert Plant, Calling to You Tabs, Chords

 SITE MENU
 Request Tabs
 Add/Correct Tabs
 DMCA Policy
 Country Sheet Music
0

BROWSE LYRICS AND TABS BY ARTIST/BAND NAME: SEARCH HERE:
A B C D E F G H I J K L M N O P Q R S T U V W X Y Z #
 

Robert Plant - Calling to You (Chords)


Robert Plant CD
Robert Plant Sheet music
Robert Plant Posters
Robert Plant - 'Calling to You'


Intro rhythm 1
E-|----------5--7------0------------------------------------------|
B-|-----------------3---------3--------------5--9---9s10s9--7--9--|
G-|------4-----------------------4--------4-----9---9s10s9--7--9--| Repeat
D-|---2-----------------------------2--2--------9---9s10s9--7--9--|
A-|---------------------------------------------------------------|
E-|---------------------------------------------------------------|

Played with Intro rhythm 1 second time (minus last two chords)
E-|--0-------------------------------------------------------------|
B-|----(0)---------------------------------------------------------|
G-|-----4b5rb4b5rb4b5rb4---2---------------------------------------|
D-|---------------------------2vvvvvvvvvvvvvvv---------------------|
A-|----------------------------------------------------------------|
E-|-----------------------------------------------0hhhhhhhhh-------|

Intro rhythm 2
E-|---------------------------------------------------|
B-|--9--9--9s10s9--7--9----9-9--9--9--9s10s9--7--9----|
G-|--9--9--9s10s9--7--9----9-9--9--9--9s10s9--7--9----|
D-|--9--9--9s10s9--7--9----9-9--9--9--9s10s9--7--9----|
A-|---------------------------------------------------|
E-|---------------------------------------------------|

Played with Intro rhythm 2 (first and only time)
E-|--0--------------------------------------|
B-|----(0)----------------------------------|
G-|-----4b5rb4b5rb4b5rb4----4b5rb4--2--4----|
D-|-----------------------------------------|
A-|-----------------------------------------|
E-|-----------------------------------------|

Then crash down into the riff that you here over and over again...

E-|------------------------------|
B-|------------------------------|   Repeat this as needed
G-|--1----1----1s2s1----0---1----|   throughout the song, usually
D-|--2----2----2s2s2----0---2----|   adding two quick E's as a pickup
A-|--2----2----2s3s2----0---2----|   note when this phrase is repeated.
E-|------------------------------|

    If you have more than one person playing, there is also
    a guitar playing repeated eighth notes on the low E string
    during this part, as well as some subtle strumming on bar
    chords (E,F,D) hidden under this part.

That riff often leads into this part, also the chorus (here I have
arranged a part played by several guitars into a single approximation)

E-|-------------------|
B-|------2---------2--|
G-|--2-2-2---2--2--2--|  Repeated several times
D-|--2-2-2---2--2--2--|  (4 times in the first case)
A-|--0-0-0---0--0--0--|
E-|-------------------|

The guitar previously playing the low E switches to an A
in that part as well.


Verse - repeat as needed

Played very chunky, with a clean accoustic strumming
E chords softly below it
E-|--------------------------|
B-|---------------------8vv--|
G-|--------------2------7vv--|
D-|--------------2------5vv--|
A-|--------------0-----------|
E-|--0----0--3b4-----0-------|

Played over the above at end of verse
E-|-----------------------------------------------------|
B-|-----------------------------------------------------|
G-|--7--7--7-9-7-6-7----7--6-7-9----7-6b7rb6b7rb6ss4-2--|
D-|-----------------------------------------------------|
A-|-----------------------------------------------------|
E-|-----------------------------------------------------|

(As I said before: sorry, no violin parts)


Mini Solo (played over eighth notes on the low E)

E-|----(11)b12vvvvv---------------------------|
B-|-------------------------------------------|
G-|-------------------------------------------|
D-|------------------------s14----------------|
A-|-----------------------------12--10--------|
E-|--------------------0----------------12----|

E-|----(11)b12vvvvv----------------------------|
B-|--------------------------------------------|
G-|--------------------------------------------|
D-|------------------------s14-----------------|
A-|-----------------------------12--10---------|
E-|--------------------0----------------12--3b4|

E-|----(11)b12vvvvv---------------------------| I'm not sure what those
B-|-------------------------------------------| other sounds are in the
G-|-------------------------------------------| background here, so I'm
D-|------------------------s14----------------| not even going to try...
A-|-----------------------------12--10--------|
E-|--------------------0----------------12----|

E-|----(11)b12vvvvv--------s12-12-12-12--s12-12-12-12----|
B-|------------------------s12-12-12-12--s12-12-12-12----|
G-|------------------------s13-13-13-13--s12-12-12-12----|
D-|------------------------------------------------------|
A-|------------------------------------------------------|
E-|--------------------0---------------------------------|

E-|---3-3-------------------------------------------------|
B-|---3-3-------------------------------------------------|
G-|---0-0----------5-5--4---------------------------------|
D-|---0-0----------5-5--4----5-(back into signature riff)-|
A-|----------------3-3--2----5----------------------------|
E-|---3-3--------------------3----------------------------|

Other Mini solo (a Wah helps on this)
E-|----------------------------------------------|
B-|----------------------------------------------|
G-|-13vvvvvv-13b14vvrb13-11vv-11b12vvrb11s9s11sss|
D-|----------------------------------------------|
A-|----------------------------------------------|
E-|----------------------------------------------|

E-|-------------------------------------------|
B-|-------------------------------------------|
G-|--13vvvvvvvb14vvvvvvvvvb15vvvvvvvvvvsss----|
D-|-------------------------------------------|
A-|-------------------------------------------|
E-|-------------------------------------------|


Plant Robert Tabs & ChordsPlant Robert Lyrics



Plant Robert Tabs, Tablatures, Chords, Lyrics

Buy Plant Robert CD
Plant Robert
Buy Plant Robert CD

  1. Plant Robert - 29 Palms Chords
  2. Plant Robert - All The Kings Horses Chords
  3. Plant Robert - Big Log Chords
  4. Plant Robert - Calling to You Chords
  5. Plant Robert - Great Spirit Chords
  6. Plant Robert - If I Were a Carpenter Chords
  7. Plant Robert - Memory Song Chords
  8. Plant Robert - Promised Land Chords
  9. Plant Robert - Ship of Fools Chords
  10. Plant Robert - Skips Song Chords



cowboylyrics.com
All lyrics are property and copyright of their owners. All lyrics provided for educational purposes only.