Elvis Presley, This Is Our Dance Tabs, Chords, Lyrics

Elvis Presley, This Is Our Dance Tabs, Chords

 SITE MENU
 Request Tabs
 Add/Correct Tabs
 DMCA Policy
 Country Sheet Music
0

BROWSE LYRICS AND TABS BY ARTIST/BAND NAME: SEARCH HERE:
A B C D E F G H I J K L M N O P Q R S T U V W X Y Z #
 

Elvis Presley - This Is Our Dance (Tabs)


Elvis Presley CD
Elvis Presley Sheet music
Elvis Presley Posters


TablEdited by RankXerox

3/4

 ______Intro_______
 | |       |       |        |       |       |        |       |       |        
||------------------------|------------------------|------------------------|
||------------------------|0-------0-------0-------|0-------0-------0-------|
||------------------------|----2-------2-------2---|----2-------2-------2---|
||------------------------|------------------------|------------------------|
||------------------------|0-----------------------|------------------------|
||--------------------0---|------------------------|0-----------------------|

                                                   _____A_____
 |       |       |        |       |       |        ||       |       |        
|------------------------|------------------------||--------2-------2-------|
|0-------0-------0-------|0-------0---------------||--------3-------3-------|
|----2-------2-------2---|----2-------------------||----4-------4-------4---|
|------------------------|------------------------||------------------------|
|0-----------------------|----------------0---1---||2-----------------------|
|------------------------|0-----------4-----------||------------------------|
 
 |       |       |        |       |       |        |       |       |        
|--------4-------4-------|--------4-------4-------|--------5-------5-------|
|--------3-------3-------|--------5-------5-------|--------7-------7-------|
|----4-------4-------4---|----6-------6-------6---|----6-------6-------6---|
|2-----------------------|------------------------|7-----------------------|
|------------------------|4-----------------------|------------------------|
|------------------------|------------------------|------------------------|
 
 |       |       |        |       |       |        |       |       |        
|--------2-------2-------|5-------4-------4---0---|4-------4-------4-------|
|--------3-------3-------|3-------3-------3-------|--------2-------2-------|
|----4-------4-------4---|----4-------4-----------|----2-------2-------2---|
|------------------------|2-----------------------|------------------------|
|2-----------------------|------------------------|0-----------------------|
|------------------------|------------------------|------------------------|
 
 |       |       |        |       |       |        |       |       |        
|2-------2---------------|--------2-------2-------|--------2-------2-------|
|--------2---------------|--------3-------3-------|--------3-------3-------|
|----2-------------------|----4-------4-------4---|----4-------4-------4---|
|------------------------|------------------------|------------------------|
|0---------------0---1---|2-----------------------|2-----------------------|
|------------4-----------|------------------------|------------------------|
 
 |       |       |        |       |       |        |       |       |        
|--------2-------2-------|------------------------|--------4-------4-------|
|--------2-------2-------|--------4-------4-------|--------5-------5-------|
|----2-------2-------2---|--------5-------5-------|----6-------6-------6---|
|------------------------|----6-------6-------6---|------------------------|
|------------------------|------------------------|4-----------------------|
|2-----------------------|5-----------------------|------------------------|


                                                  ____B____
 |       |       |        |       |       |       | |       |       |        
|------------------------|--------0-------0-------||----0-------0-------0---|
|--------4-------4-------|--------0-------0-------||----0-------0-------0---|
|--------5-------5-------|----1-------1-------1---||------------------------|
|----6-------6-------6---|------------------------||------------------------|
|------------------------|------------------------||------------------------|
|5-----------------------|0-----------------------||0-------2-------4-------|
 
 |       |       |        |       |       |        |       |       |        
|------------------------|------------------------|------------------------|
|--------2-------2-------|--------2-------2-------|2-------1-------2-------|
|--------2-------2-------|--------2-------2-------|--------2-------2-------|
|----2-------2-------2---|----2-------2-------2---|----2-------2-------2---|
|0-----------------------|------------------------|0-----------------------|
|------------------------|0-----------------------|------------------------|
 
 |       |       |        |       |       |        |       |       |        
|------------------------|--------4-------4-------|--------4-------4-------|
|3-------2---------------|--------5-------5-------|--------5-------5-------|
|--------2-------2-------|----6-------6-------6---|----6-------6-------6---|
|----2-------2-------2---|6-----------------------|------------------------|
|------------------------|------------------------|4-----------------------|
|0-----------------------|------------------------|------------------------|
 
 |       |       |        |       |       |        |       |       |        
|--------4-------4-------|--------4-------4-------|--------2-------2-------|
|--------5-------5-------|--------5-------5-------|--------2-------2-------|
|----6-------6-------6---|----6-------6-------6---|----2-------2-------2---|
|6-----------------------|------------------------|4-----------------------|
|------------------------|4-----------------------|------------------------|
|------------------------|------------------------|------------------------|
 
 |       |       |        |       |       |        |       |       |        
|--------2-------2-------|------------------------|------------------------|
|--------2-------2-------|--------4-------4-------|--------4-------4-------|
|----2-------2-------2---|--------5-------5-------|--------5-------5-------|
|2-----------------------|----6-------6-------6---|----6-------6-------6---|
|------------------------|------------------------|------------------------|
|------------------------|4-----------------------|4-----------------------|
 
 |       |       |        |       |       |        |       |       |        
|--------4-------4-------|------------------------|--------0-------0-------|
|--------5-------5-------|--------4-------4-------|--------0-------0-------|
|----6-------6-------6---|--------5-------5-------|----1-------1-------1---|
|6-----------------------|----6-------6-------6---|------------------------|
|------------------------|------------------------|------------------------|
|------------------------|4-----------------------|0-----------------------|


                    ______  _____C______
 |       |       |        | |       |       |        |       |       |        
|--------0-------0--------||------------------------|------------------------|
|--------0-------0--------||--------2-------2-------|--------2-------2-------|
|----1-------1-------1---*||--------2-------2-------|--------2-------2-------|
|------------------------*||----2-------2-------2---|----2-------2-------2---|
|-------------------------||0-----------------------|------------------------|
|0------------------------||------------------------|0-----------------------|


                                                    _____D_____
 |       |       |        |       |       |         ||       |       |        
|------------------------|-------------------------||------------------------|
|--------2-------2-------|--------2----------------||--------2-------2-------|
|--------2-------2-------|--------2----------------||--------2-------2-------|
|----2-------2-------2---|----2--------------------||----2-------2-------2---|
|0-----------------------|0---------------0---1----||0-----------------------|
|------------------------|------------4------------||------------------------|
 
 |       |       |        |       |       |        |       |       |        
|------------------------|------------------------|------------------------|
|--------3-------3-------|--------3-------3-------|0---------------0-------|
|--------2-------2-------|--------4-------4-------|1-------2-------1-------|
|----2-------2-------2---|----4-------4-------4---|----2-------2-------2---|
|0-----------------------|2-----------------------|------------------------|
|------------------------|------------------------|0-----------------------|
 
 |       |       |        
|------------------------|
|2-----------------------|
|2-----------------------|
|2-----------------------|
|0-----------------------|
|------------------------|
 

Forme : Intro ABBCABBD


RX2009 


Presley Elvis Tabs & Chords



Presley Elvis Tabs, Tablatures, Chords, Lyrics

Buy Presley Elvis CD
Presley Elvis
Buy Presley Elvis CD

  1. Presley Elvis - (Let Me Be Your) Teddy Bear Chords
  2. Presley Elvis - (marie's The Name) His Latest Flame Chords
  3. Presley Elvis - A Little Less Conversation Chords
  4. Presley Elvis - A Little Less Conversation Correct Chords Chords
  5. Presley Elvis - All Shook Up Chords
  6. Presley Elvis - Almost in Love Chords
  7. Presley Elvis - Amazing Grace Chords
  8. Presley Elvis - American Trilogy Chords
  9. Presley Elvis - Angel In C Chords
  10. Presley Elvis - Are You Lonesome Tonight(harmonica) Tabs
  11. Presley Elvis - Are You Sincere Chords
  12. Presley Elvis - Baby Lets Play House Chords
  13. Presley Elvis - Baby, What Do You Want Me To Do? Tabs
  14. Presley Elvis - Baby,what Do You Want Me To Do Chords
  15. Presley Elvis - Blue Christmas Chords
  16. Presley Elvis - Blue Hawaii Chords
  17. Presley Elvis - Blue Suede Shoes Chords
  18. Presley Elvis - Burning Love Chords
  19. Presley Elvis - Cant Help Falling Chords
  20. Presley Elvis - Clean Up Your Own Backyard Chords
  21. Presley Elvis - Crying In The Chapel Chords
  22. Presley Elvis - Daddy Don't Cry Chords
  23. Presley Elvis - Devil In Disguise Chords
  24. Presley Elvis - Don't Leave Me Now Chords
  25. Presley Elvis - Dont Be Cruel Chords
  26. Presley Elvis - Early Morning Rain Chords
  27. Presley Elvis - Fairytale Chords
  28. Presley Elvis - Feel So Bad Tabs
  29. Presley Elvis - Good Luck Charm Chords
  30. Presley Elvis - Have I Told You Lately That I Love You Chords
  31. Presley Elvis - Hawaiian Wedding Song(harp) Tabs
  32. Presley Elvis - Heartbreak Hotel Chords
  33. Presley Elvis - Home Is Where The Heart Is Chords
  34. Presley Elvis - Hound Dog Chords
  35. Presley Elvis - Hows World Treating You Chords
  36. Presley Elvis - I Believe Chords
  37. Presley Elvis - I Just Can't Help Believing Chords
  38. Presley Elvis - I Want You, I Need You, I Love You Chords
  39. Presley Elvis - I'm A Roustabout Chords
  40. Presley Elvis - If I Can Dream Chords
  41. Presley Elvis - Im Left Youre Right Chords
  42. Presley Elvis - In The Ghetto (Vicious Circle) Chords
  43. Presley Elvis - It's Christmas Time Pretty Baby Chords
  44. Presley Elvis - It's Now Or Never Chords
  45. Presley Elvis - Jail House Rock Riffs Tabs
  46. Presley Elvis - Jailhouse Rock Chords
  47. Presley Elvis - Just Because Chords
  48. Presley Elvis - King Creole Chords
  49. Presley Elvis - Lawdy Miss Clawdy Chords
  50. Presley Elvis - Lawdy, Miss Clawdy Chords
  51. Presley Elvis - Let Me Be There Chords
  52. Presley Elvis - Love Me Chords
  53. Presley Elvis - Love Me Tender Chords
  54. Presley Elvis - Love Me Tender2 Chords
  55. Presley Elvis - Mansion Just Over The Top Chords
  56. Presley Elvis - Mary In The Morning Chords
  57. Presley Elvis - Mean Woman Blues Tabs
  58. Presley Elvis - Moody Blue Chords
  59. Presley Elvis - No More Chords
  60. Presley Elvis - Old Shep Chords
  61. Presley Elvis - One Night Tabs
  62. Presley Elvis - One Night With You Chords
  63. Presley Elvis - Polk Salad Annie Chords
  64. Presley Elvis - Promised Land2 Chords
  65. Presley Elvis - Return To Sender Chords
  66. Presley Elvis - Santa Bring My Baby Back To Me Chords
  67. Presley Elvis - Shes Not You Chords
  68. Presley Elvis - Stranger In The Crowd Chords
  69. Presley Elvis - Suspicious Minds Chords
  70. Presley Elvis - That's All Right, Mama (vocs) Tabs
  71. Presley Elvis - Thats Alright Mama Chords
  72. Presley Elvis - The Girl Of My Best Friend Chords
  73. Presley Elvis - The Promised Land Chords
  74. Presley Elvis - The Wonder Of You Chords
  75. Presley Elvis - This Is Our Dance Tabs
  76. Presley Elvis - Treat Me Nice Chords
  77. Presley Elvis - Until It's Time For You To Go(harp) Tabs
  78. Presley Elvis - Want You Need You Love You Chords
  79. Presley Elvis - Wear My Ring Around Your Neck Chords
  80. Presley Elvis - Wooden Heart Chords
  81. Presley Elvis - You Are The Devil In Disguise(harp) Tabs
  82. Presley Elvis - You Dont Know Me Chords
  83. Presley Elvis - You'll Never Walk Alone Chords
  84. Presley Elvis - Your Cheatin' Heart Tabs



cowboylyrics.com
All lyrics are property and copyright of their owners. All lyrics provided for educational purposes only.