Jimmy Rankin, Morning Bound Train (intro) Tabs, Chords, Lyrics

Jimmy Rankin, Morning Bound Train (intro) Tabs, Chords

 SITE MENU
 Request Tabs
 Add/Correct Tabs
 DMCA Policy
 Country Sheet Music
0

BROWSE LYRICS AND TABS BY ARTIST/BAND NAME: SEARCH HERE:
A B C D E F G H I J K L M N O P Q R S T U V W X Y Z #
 

Jimmy Rankin - Morning Bound Train (intro) (Tabs)


Jimmy Rankin CD
Jimmy Rankin Sheet music
Jimmy Rankin Posters
Now, keep in mind I'm not the greatest ear, or the greatest guitar player, this 
tab is only a starting point for people better than me to fix and make 
accurate. I know most of it will probably be off, but that's what you people 
are here for ;)


E|-------------------------------------------------
B|-------------4-----------4---------4-4-4--5------
G|-------2-------------0-0---0--------2-2-2--------
D|-0-1h2---2p1---2-3h5---------3h5-2---------------
A|-------------------------------------------------
E|-------------------------------------------------

E|-------------------------------------------------
B|-4p2---4---4---4----------------------------4----
G|-----3---2---2---2-3p2-1h2-1p0-------2--------2--
D|-------------------------------0-1h2----2p1------
A|-------------------------------------------------
E|-------------------------------------------------

E|-------------------------------------------------
B|-3brb-4-------4-----4--------4---------4-4-4---5-
G|--------------------------0-0--0--------2-2-2-2--
D|--------0-1h2---2p1---3h5--------3h5-2-----------
A|-------------------------------------------------
E|-------------------------------------------------

E|-------------------------------------------------
B|4p2---4---4---4----------------------------------
G|----3--2p1-2p1--2-3p2-1h2-1p0-------2----4-------
D|------------------------------0-1h2---2p1-2-0h1h2
A|-------------------------------------------------
E|-------------------------------------------------

I'm expecting criticism...


Rankin Jimmy Tabs & Chords



Rankin Jimmy Tabs, Tablatures, Chords, Lyrics

Buy Rankin Jimmy CD
Rankin Jimmy
Buy Rankin Jimmy CD

  1. Rankin Jimmy - Butterfly Chords
  2. Rankin Jimmy - California Dreamer Chords
  3. Rankin Jimmy - Dog Out In The Rain Chords
  4. Rankin Jimmy - Followed Her Around Chords
  5. Rankin Jimmy - Handmade Chords
  6. Rankin Jimmy - I Followed Her Around Chords
  7. Rankin Jimmy - Lighthouse Heart Chords
  8. Rankin Jimmy - Morning Bound Train Chords
  9. Rankin Jimmy - Morning Bound Train (intro) Tabs
  10. Rankin Jimmy - Pull Out Your Picture Tabs
  11. Rankin Jimmy - Slipping Away Chords
  12. Rankin Jimmy - We’ll Carry On Chords
  13. Rankin Jimmy - Whiskey When The Sun Goes Down Tabs
  14. Rankin Jimmy - You And Me Chords



cowboylyrics.com
All lyrics are property and copyright of their owners. All lyrics provided for educational purposes only.