, Chee-z Tabs, Chords, Lyrics

, Chee-z Tabs, Chords

 SITE MENU
 Request Tabs
 Add/Correct Tabs
 DMCA Policy
 Country Sheet Music
0

BROWSE LYRICS AND TABS BY ARTIST/BAND NAME: SEARCH HERE:
A B C D E F G H I J K L M N O P Q R S T U V W X Y Z #
 

- Chee-z (Tabs)


CD
 Sheet music
Posters
A: THEME

Am                                                                 E

---------------------------------------------------------------------------0--------
---------------------------------------------------1-3-3b(4)r3-1-------0------------
--------------------------------------0h2-0h2~---2---------------2-1~---------------
-----------------0h2-0h2~-----------------------------------------------------------
-0-0---0-2-3-2-0------------0-2-3-2-0-----------------------------------------------
------------------------------------------------------------------------------------

Am

------------------------------------------------------------------------------------
---------------------------------------------------1-3-3b(4)r3-1--------------------
--------------------------------------0h2-0h2~---2---------------2-2~---------------
-----------------0h2-0h2~-----------------------------------------------------------
-0-0---0-2-3-2-0------------0-2-3-2-0-----------------------------------------------
------------------------------------------------------------------------------------

B: BRIDGE

Dm                     Am                  D             E

------------------------------------------------------------------------------------
------------------------------------------------------------------------------------
------------------------------------------------------------------------------------
-----0-0-------0---0----------------------------------------------------------------
-3s5---5~--3s5---5-5-----0-0-----0---0---0-0-0-0-----0-1-2-2------------------------
---------------------3s5---5--s5---4---3---2-2-2-------------2b(3)-2b(3)r2-0--------

C: THEME

Am

------------------------------------------------------------------------------------
---------------------------------------------------1-3-3b(4)r3-1--------------------
--------------------------------------0h2-0h2~---2---------------2-2~---------------
-----------------0h2-0h2~-----------------------------------------------------------
-0-0---0-2-3-2-0------------0-2-3-2-0-----------------------------------------------
------------------------------------------------------------------------------------

D: SOLO

Am

-8-5--------------------------------------------------------------------------------
-----8-5----------------------------------------------------------------------------
---------7b(9)-7b(9)-7p5-------------5b(6)---7b(8)-7b(8)-7b(8)-7b(8)---7b(8)-5-7-5--
-------------------------7p5-7-7-5-7------------------------------------------------
------------------------------------------------------------------------------------
------------------------------------------------------------------------------------

                                          E            Am 

-----8-10-10b(12)-----8-10-10b(12)-10-8---8-10-7~------17-17-17-17-17-17---17-17-17-
-s10--------------s10---------------------------------------------------------------
------------------------------------------------------------------------------------
------------------------------------------------------------------------------------
------------------------------------------------------------------------------------
------------------------------------------------------------------------------------

-17-17---(12)r10-8-10-8-10-8----8---(12)r10-8---10-8--(12)r10-10-10-8---------------
-----------------------------10---------------------------------------10-8----------
------------------------------------------------------------------------------------
------------------------------------------------------------------------------------
------------------------------------------------------------------------------------
------------------------------------------------------------------------------------

------------8-----------
-10-10-8-10---10-8-10---
------------------------
------------------------
------------------------
------------------------

E: BRIDGE (repeat B)

F: OUTRO

Am                                                                               End 

------------------------------------------------------------------------------------
--------------------------------------------------1-3-3b(4)r3-1----------------8----
--------------------------------------0h2-0h2---2---------------2-2-2-0-0-2----6----
-----------------0h2-0h2~------------------------------------------------------7----
-0-0---0-2-3-2-0------------0-2-3-2-0-----------------------------------------------
------------------------------------------------------------------------------------


Redd Volkaert Tabs & Chords



Redd Volkaert Tabs, Tablatures, Chords, Lyrics

Buy Redd Volkaert CD
Redd Volkaert
Buy Redd Volkaert CD

  1. Redd Volkaert - Chee-z Tabs



cowboylyrics.com
All lyrics are property and copyright of their owners. All lyrics provided for educational purposes only.