Heart Restless, The Bluest Eyes In Texas Tabs, Chords, Lyrics

Heart Restless, The Bluest Eyes In Texas Tabs, Chords

 SITE MENU
 Request Tabs
 Add/Correct Tabs
 DMCA Policy
 Country Sheet Music
0

BROWSE LYRICS AND TABS BY ARTIST/BAND NAME: SEARCH HERE:
A B C D E F G H I J K L M N O P Q R S T U V W X Y Z #
 

Heart Restless - The Bluest Eyes In Texas (Chords)


Heart Restless CD
Heart Restless Sheet music
Heart Restless Posters

The Bluest Eyes in Texas
By:  Restless Heart

Capo on 1st
Key of Bb

A				   D
That lonesome Texas sun is setting soon
     A					 D
And in the rear view mirror I watched it bloom
	Bm	    F#m		       E   A  E
I can still see the wind in her golden hair
  Bm		      F#m		 D
I close my eyes for a moment, I'm still there.


Chorus:
    E			     F3m      E    D
The bluest eyes in Texas are haunting me tonight
	 E					F#m  E	      D
Like the stars that fill the midnight sky her memory fills my mind
		A			      F#m   E	    D
(where did I go wrong) did I wait too long or can I make it right
    A			     F#m      E    D
The bluest eyes in Texas are haunting me tonight.

A			   D
Another town another hotel room
A				 D
Another dream that ended way too soon
Bm		F#m		  E   A  E
Left me lonely praying before the dawn
Bm		  F#m		    D
Searching for the strength to carry on.

chorus
solo:  A  D  A  D

|---------------------------------10-8----8-----------
|---2/3-1---1-------------6-6h8-6------11---11-11-6/8-
|-3-------3---3-3h5---5/8-----------------------------
|-------------------5---------------------------------
|-----------------------------------------------------
|-----------------------------------------------------

    Bm		    F#m		    E   A  E
For every heart you break you pay a price
	Bm		F#m	    D
But I can't forget the tears in her blue eyes

chorus and repeat last line
solo:  A  D  A  D  A  D  A  D  A  D  A-fade

|---------------------------------6-8(9)(8)-6-13-8(9)-8(9)-6-
|---2/3-1---1-------------6-6h8-6----------------------------
|-3-------3---3-3h5---5/8------------------------------------
|-------------------5----------------------------------------
|------------------------------------------------------------
|------------------------------------------------------------


|-------------------------------------------------------8-8-8-10-------
|-8-6-6h8-6------------------------------------------------------11-11-
|-----------8-10-10(11)-10-8----8-10-----8-10-10(11)-10----------------
|----------------------------10------8-8-------------------------------
|----------------------------------------------------------------------
|----------------------------------------------------------------------

|-8----10(11)-10-8-11-8h10------------------------------------------------
|---11---------------------11-11------------------------------------------
|--------------------------------8/10-10-10..10-10-10..10-10-10..10-10-10-
|-------------------------------------------------------------------------
|-------------------------------------------------------------------------
|-------------------------------------------------------------------------

|---------------------8-10----------------8-10---------------------
|-8-10-11-11-11-11-11------11-11-11-11-11------11-11-11-11 (fade) -
|------------------------------------------------------------------
|------------------------------------------------------------------
|------------------------------------------------------------------
|------------------------------------------------------------------
			Jason A. Wendtland


Restless Heart Tabs & ChordsRestless Heart Lyrics



Restless Heart Tabs, Tablatures, Chords, Lyrics

Buy Restless Heart CD
Restless Heart
Buy Restless Heart CD

  1. Restless Heart - A Tender Lie Chords
  2. Restless Heart - Back To The Heartbreak Kid Chords
  3. Restless Heart - Big Dreams In A Small Town Chords
  4. Restless Heart - Bluest Eyes In Texas Chords
  5. Restless Heart - Dancy's Dream Chords
  6. Restless Heart - Fast Movin Train Chords
  7. Restless Heart - Feel My Way To You Chords
  8. Restless Heart - Heartbreak Kid Chords
  9. Restless Heart - I'll Still Be Lovin' You Chords
  10. Restless Heart - Makin' Hay Chords
  11. Restless Heart - No End To This Road Chords
  12. Restless Heart - Say What's In Your Heart Chords
  13. Restless Heart - Still Be Lovin You Chords
  14. Restless Heart - Sweet Auburn Chords
  15. Restless Heart - That Rock Won't Roll Chords
  16. Restless Heart - That Rock Won't Roll (Capo) Chords
  17. Restless Heart - The Bluest Eyes In Texas Chords
  18. Restless Heart - We Got The Love Chords
  19. Restless Heart - When She Cries Chords
  20. Restless Heart - Why Does It Have To Be Tabs
  21. Restless Heart - Wrong Or Right Chords
  22. Restless Heart - You Can Depend On Me Chords



cowboylyrics.com
All lyrics are property and copyright of their owners. All lyrics provided for educational purposes only.