Brown Sawyer, With This Ring Tabs, Chords, Lyrics

Brown Sawyer, With This Ring Tabs, Chords

 SITE MENU
 Request Tabs
 Add/Correct Tabs
 DMCA Policy
 Country Sheet Music
0

BROWSE LYRICS AND TABS BY ARTIST/BAND NAME: SEARCH HERE:
A B C D E F G H I J K L M N O P Q R S T U V W X Y Z #
 

Brown Sawyer - With This Ring (Tabs)


Brown Sawyer CD
Brown Sawyer Sheet music
Brown Sawyer Posters
“With This Ring”
Sawyer Brown
“Six Days On The Road” Album

Capo 2

Intro
    D        Em      Asus    A D  D    D    
e-0h2p0-----------0------------2--0h2--0h2---2----0h2--0h2-
B-------3--2-0-----0--3/5--3-2-3--3----3----3-3---3----3---
G-0h2p0--------0---------------2--2----2-------2--2----2---
D-------4--2----2--------------0--0----0----------0----0---
A---------------------0------------------------------------
E------------0---------------------------------------------
         Asus     D         Asus     D
e--------------------2------------------2----
B---------3---------3-3------3---------3-3---
G----------2-------2----------2-------2------
D-----------2-----0------------3-----0-------
A---------0---0--------------0--0------------
E--------------------------------------------
Vs1: I’ll say my  peace  and play my hand
Vs2:   I  do all  right Here on my   own
         A          Adim        Bm
e--------------------------------------------2------
B------------2-----------2-------------3-------3----
G-------------2------------0---------4-----------4--
D----------2-----------2-----------4----------------
A--------0-----------1-----------2-------------------
E---------------------------------------------------
Vs1:     Maybe this  way  you’ll understand I’m
Vs2: But you give me things I’ve never known, oh
     G       D             G           D
e------3---------2-----------3------------2---
B-------3-------3-------------3----------3--
G--------0-----2---------------0--------2-
D-----0-------0-------------0----------0----
A---------------------------------------------
E----3---------------------3------------------
Vs1: Short on words  I was raised that way
Vs2: Here  I  am   Gettin' up    my    nerve
         A            Adim     F#m
e----------------------------------------2----
B-----------2-------------2-----------2---2---
G-------------2-------------0-----------4--4--
D---------2-------------2---------4-----------
A--------0------------1---------4-------------
E------------------------------2--------------
Vs1: But I still mean all  the ones I say
Vs2: It  may not  be  all That you deserve

Chorus
        Bm    A    G       D       A Asus
e-----------------------------0---------------
B----------------------3-----3-------2h3-2----
G---------------------------2-----------------
D---------4----2----0------0--------2---------
A--------2----0--------------------0----------
E------------------3--------------------------

Vs1: And with this ring  I promise you
Vs2: But… (continue w/Vs1)
        Bm   A    G       D          A Asus
e-----------------------------0---------------
B----------------------3-----3-----------2h3-2
G---------------------------2-----------------
D---------4----2----0------0-----------2------
A--------2----0-----------------------0-------
E------------------3--------------------------
Vs1:    Everything that I have or can do
             Bm   A   G        D        A  Asus
e----------------------------------0-------------
B-------------------------3-------3---------2h3-2
G--------------------------------2---------------
D--------------4----2--0--------0----------2-----
A-------------2----0---------------------0-------
E---------------------3--------------------------
Vs1: There’s so many roads that love can run
         Em          Bm               A      D
e--------------------------------------------2--0h2--0h2
B-------------0---------------------------2--3--3----3--
G---------------0-------4----------------2---2--2----2--
D-----------2----------4-4--------------2----0--0----0--
A---------2-----------2----------------0----------------
E-------------------------------------------------------
Vs1:  But here in my heart  you’re the only  one

(play this last bar again for end of song and repeat intro for the outro)


Sawyer Brown Tabs & ChordsSawyer Brown Lyrics



Sawyer Brown Tabs, Tablatures, Chords, Lyrics

Buy Sawyer Brown CD
Sawyer Brown
Buy Sawyer Brown CD

  1. Sawyer Brown - 'round Here Chords
  2. Sawyer Brown - 48 Hours Till Monday Chords
  3. Sawyer Brown - 800 Pound Jesus Chords
  4. Sawyer Brown - A Different Tune Chords
  5. Sawyer Brown - Ain't That Always The Way Chords
  6. Sawyer Brown - All These Years Chords
  7. Sawyer Brown - Another Side Chords
  8. Sawyer Brown - Betty's Being Bad Chords
  9. Sawyer Brown - Between You & Paradise Chords
  10. Sawyer Brown - Big Picture Chords
  11. Sawyer Brown - Blue Denim Soul Chords
  12. Sawyer Brown - Blue Denim Soul (w/intro Tab) Chords
  13. Sawyer Brown - Broken Candy Chords
  14. Sawyer Brown - Burning Bridges (on A Rocky Road) Chords
  15. Sawyer Brown - Cafe Down On The Corner (guitar Intro) Tabs
  16. Sawyer Brown - Cafe On The Corner(2) Chords
  17. Sawyer Brown - Chain Of Love (recorded Key) Chords
  18. Sawyer Brown - Did It For Love Chords
  19. Sawyer Brown - Dirt Road Chords
  20. Sawyer Brown - Drive Me Wild Chords
  21. Sawyer Brown - Drive Me Wild 2 Chords
  22. Sawyer Brown - Farmer Tan Chords
  23. Sawyer Brown - Feel Like Me Chords
  24. Sawyer Brown - Field Hand Chords
  25. Sawyer Brown - Gettin' Tough (good Ol' Boy) & Intro Tab Chords
  26. Sawyer Brown - Glory To The King Chords
  27. Sawyer Brown - Going Back To Indiana Chords
  28. Sawyer Brown - Gypsies On Parade Chords
  29. Sawyer Brown - Hard To Say Chords
  30. Sawyer Brown - He Sent A Carpenter Chords
  31. Sawyer Brown - Hold On 2 Chords
  32. Sawyer Brown - Homestead In My Heart (recorded Key) Chords
  33. Sawyer Brown - I Kept My Motor Runnin' Chords
  34. Sawyer Brown - I Will Leave The Light On Chords
  35. Sawyer Brown - I'll Be Around Chords
  36. Sawyer Brown - I'm Gonna Miss You Chords
  37. Sawyer Brown - I'm In Love With Her Chords
  38. Sawyer Brown - In This Town Chords
  39. Sawyer Brown - It Wasn't His Child Tabs
  40. Sawyer Brown - Its Hard To Keep A Good Love Down Chords
  41. Sawyer Brown - Leona Chords
  42. Sawyer Brown - Lesson In Love Chords
  43. Sawyer Brown - Like A John Deere Chords
  44. Sawyer Brown - Mama's Little Baby Loves Me Chords
  45. Sawyer Brown - Mission Temple Fireworks Stand Chords
  46. Sawyer Brown - My Baby Drives A Buick Chords
  47. Sawyer Brown - Nebraska Song Chords
  48. Sawyer Brown - Night Wont Last Forever Chords
  49. Sawyer Brown - Nothin' Less Than Love Chords
  50. Sawyer Brown - Old Photographs Chords
  51. Sawyer Brown - Outskirts Of Town Chords
  52. Sawyer Brown - Passin' Train Chords
  53. Sawyer Brown - Puttin' The Dark Back Into The Night Chords
  54. Sawyer Brown - Ruby Red Shoes Chords
  55. Sawyer Brown - Sharin' The Moonshine Chords
  56. Sawyer Brown - She's Gettin' There Chords
  57. Sawyer Brown - Sister's Got A New Tattoo Chords
  58. Sawyer Brown - Six Days On The Road Chords
  59. Sawyer Brown - Small Town Hero 2 Chords
  60. Sawyer Brown - Smokin' In The Rockies Chords
  61. Sawyer Brown - Some Girls Do Chords
  62. Sawyer Brown - Sometimes A Hero Chords
  63. Sawyer Brown - Sometimes A Hero (piano Intro For Guitar) Tabs
  64. Sawyer Brown - Somewhere In The Night Chords
  65. Sawyer Brown - Somewhere In The Night (w/intro Tab) Chords
  66. Sawyer Brown - Step That Step Chords
  67. Sawyer Brown - Still Life In Blue Chords
  68. Sawyer Brown - Still Water (intro And Walkups) Tabs
  69. Sawyer Brown - Sweet Mary Cried Chords
  70. Sawyer Brown - Thank God For You Chords
  71. Sawyer Brown - The Cafe On The Corner Chords
  72. Sawyer Brown - The Dirt Road Chords
  73. Sawyer Brown - The Heartland Chords
  74. Sawyer Brown - The Race Is On Chords
  75. Sawyer Brown - The Secretary Song Chords
  76. Sawyer Brown - The Walk Chords
  77. Sawyer Brown - They Dont Understand Chords
  78. Sawyer Brown - This Night Wont Last Forver Chords
  79. Sawyer Brown - This Thing Called Wantin' And Havin' It All Chords
  80. Sawyer Brown - Travelin' Shoes Chords
  81. Sawyer Brown - Treat Her Right Chords
  82. Sawyer Brown - Trouble On The Line Chords
  83. Sawyer Brown - Used To Blue Chords
  84. Sawyer Brown - What Am I Gonna Tell My Heart Chords
  85. Sawyer Brown - When You Run From Love Chords
  86. Sawyer Brown - With This Ring Tabs
  87. Sawyer Brown - With You Daddy Chords
  88. Sawyer Brown - Your Faith Chords



cowboylyrics.com
All lyrics are property and copyright of their owners. All lyrics provided for educational purposes only.