Mindy Smith, You Just Forgot Tabs, Chords, Lyrics

Mindy Smith, You Just Forgot Tabs, Chords

 SITE MENU
 Request Tabs
 Add/Correct Tabs
 DMCA Policy
 Country Sheet Music
0

BROWSE LYRICS AND TABS BY ARTIST/BAND NAME: SEARCH HERE:
A B C D E F G H I J K L M N O P Q R S T U V W X Y Z #
 

Mindy Smith - You Just Forgot (Chords)


Mindy Smith CD
Mindy Smith Sheet music
Mindy Smith Posters
Capo on 3rd Fret

    G    Cadd9     Asus    Em7     Am/E   F#/D
e---3------0--------0-------0-------0--------
b---3------3--------3-------3-------1------3-
g---0------0--------2-------0-------2------2-
d---0------2--------0-------2-------2--------
a---2------3----------------2-------0--------
E---3-----------------------0-------0------2-


Beginning
e----------------------------------------
b------0-------0---------0----------0----
g-------2--------0----------2---------0--
d----0-------0---------0---------0-------
a----------------------------------------
E--3------(2)--------3-------(2)---------

e----------------------------------------
b-------0-------0---------0---------0----
g---------0-------0---------0----------0-
d-----2--------2--------2---------2------
A---3--------3--------3--------3---------
E----------------------------------------

VERSE

I know that you love me
e--------------------------
b-------0------------0-----
g--------2-------------0---
d-----0------------0-------
a--------------------------
E---3-----------(2)--------

and I know you think of me a lot.
e----------------------------------
b-------0---------------0----------
g--------2----------------0--------
d-----0---------------0------------
a----------------------------------
E---3---------------(2)------------
Cont.
e----------------------------------------
b-------0-------0---------0---------0----
g---------0-------0---------0----------0-
d-----2--------2--------2---------2------
A---3--------3--------3--------3---------
E----------------------------------------

And I know that you care
e--------------------------
b-------0------------0-----
g--------2-------------0---
d-----0------------0-------
a--------------------------
E---3-----------(2)--------

and you wish I was there when I'm not.
e-------------------------------------
b-------0---------------0-------------
g--------2----------------0-----------
d-----0---------------0---------------
a-------------------------------------
E---3---------------(2)---------------
Cont.
e----------------------------------------
b-------0-------0---------0---------0----
g---------0-------0---------0----------0-
d-----2--------2--------2---------2------
A---3--------3--------3--------3---------
E----------------------------------------


From the first of the year to the last of December.
e--------------0---------------------------------
b---------3------3--------------3--------------3-
g------2----2------2-------------0--------------0
d----0-----------------------2---------------0---
a---------------------------3--------------------
E------------------------------------------3-----

Seems all I do is try not to Remember

e-----------0--------------------------
b-------3----3----------0----------0---
g-----2--2----2-----------0----------0-
d----0----------------2----------0-----
a-------------------2------------------
E------------------(0)--------(2)------

That you just forgot
e------------------------------------------------------
b-------0------------0-------------3------------3------
g--------2-------------0-------------0------------0----
d-----0------------0-------------0------------0--------
a------------------------------------------------------
E---3-----------(2)----------(2)---------(2)-----------

yeah you just forgot.
e------------------------------------------------
b-------0--------0--------0------------0---------
g---------0--------0---------0------------0------
d----2---------2-------2------------2------------
a-3---------3--------3-----------3---------------
E------------------------------------------------




Solo

   G    Asus  G   Asus   Cadd9   G    Asus G  Asus   Cadd9
e----------------------------------------------------------
b----------------------------------------------------------
g----------------------------------------------------------
d--------4---------4---5----2/4--------7/5-------4/2---5---
a--2----------2------------------2---------2---------------
E----------------------------------------------------------
                            / -Slide


G                      Asus
Well I'm sure that you miss me                
G                Asus               Cadd9
And I know that someday you'll be back
G                            Asus
I must of just slipped your mind 
G               Asus          Cadd9
wonder why didn't I think of that
Asus                               Cadd9           G
And the first thing I do when the light hits the window
Asus                         Em7            F#/D         G   F#/D
is think about you and then think its as simple as you just forgot
Cadd9
Yeah you just forgot


Em7				Cadd9
I bet you tied a string on your finger
G
left a trail of some kind behind you
Em7                  Cadd9          Asus
keep a note on your pillow to remind you
Am/E
to remind you



That you just forgot 
e----------------------------
b--------5----3--------------
g----4------------2----------
d----------------------------
a----------------------------
E----------------------------

Yeah you just forgot


Smith Mindy Tabs & ChordsSmith Mindy Lyrics



Smith Mindy Tabs, Tablatures, Chords, Lyrics

Buy Smith Mindy CD
Smith Mindy
Buy Smith Mindy CD

  1. Smith Mindy - Angel Doves Chords
  2. Smith Mindy - Come To Jesus Chords
  3. Smith Mindy - Down In Flames Chords
  4. Smith Mindy - Edge Of Love Chords
  5. Smith Mindy - Falling Chords
  6. Smith Mindy - Fighting For It All Chords
  7. Smith Mindy - Hurricane Chords
  8. Smith Mindy - Jolene Chords
  9. Smith Mindy - Long Island Shores Chords
  10. Smith Mindy - My Holiday Chords
  11. Smith Mindy - One Moment More Chords
  12. Smith Mindy - Out Loud Chords
  13. Smith Mindy - Please Stay Chords
  14. Smith Mindy - Train Song Chords
  15. Smith Mindy - What If The World Stops Turning Chords
  16. Smith Mindy - You Just Forgot Chords



cowboylyrics.com
All lyrics are property and copyright of their owners. All lyrics provided for educational purposes only.