, Leave The Pieces (correct) Tabs, Chords, Lyrics

, Leave The Pieces (correct) Tabs, Chords

 SITE MENU
 Request Tabs
 Add/Correct Tabs
 DMCA Policy
 Country Sheet Music
0

BROWSE LYRICS AND TABS BY ARTIST/BAND NAME: SEARCH HERE:
A B C D E F G H I J K L M N O P Q R S T U V W X Y Z #
 

- Leave The Pieces (correct) (Tabs)


CD
 Sheet music
Posters
-------------------------------------------------------------------------------
                       Leave The Pieces  The Wreckers
-------------------------------------------------------------------------------
Tuning: half step down (Eb Ab Db Gb Bb eb)

Chords (relative to key):

   D Dsus4 Dsus2 Cadd9 G  Em  F  Bb
e|-2---3-----0-----3---3---0--1---1--|
B|-3---3-----3-----3---3---0--1---3--|
G|-2---2-----2-----0---0---0--2---3--|
D|-0---0-----0-----2---0---2--3---3--|
A|-x---x-----x-----3---2---2--3---1--|
E|-x---x-----x-----x---3---0--1---x--|

Intro:

Guitar 2:
e|-------2-2-3-2-0---------------------2-2-3-2-0--------|
B|-0h1-3-----------3-1-1h3-1-0--0h1-3------------3-1----|
G|------------------------------------------------------|
D|------------------------------------------------------|
A|------------------------------------------------------|
E|------------------------------------------------------|
Guitar 1:
          D    D  Dsus4  D  Dsus2  Cadd9  (G)  () 1st time only
e|--------2----2----3----2----0-------3----(3)------------|
B|(0h1 3)-3----3----3----3----3---3---3----(3)------------|
G|--------2----2----2----2----2-------0----(0)------------|
D|--------0----0----0----0----0-------2----(0)------------| x2
A|--------x----x----x----x----x-------3----(2)------------|
E|--------x----x----x----x----x-------x----(3)------------|
Verse 1:
           D
You're not sure that you love me
               Em
But you're not sure enough to let me go
Cadd9
Baby, it ain't fair, you know,
        Cadd9   G        D
To just keep me hangin' 'round

            D
You say you don't wanna hurt me
Em
Don't want to see me tears
   Cadd9
So why are you still standing here,
     G
Just watching me drown?

Chorus:
    G                  Cadd9
And it's alright, yeah I'll be fine,
      D
Don't worry 'bout this heart of mine,
    G          Cadd9            D
Just take your love and hit the road
        G               Cadd9
There's nothing you can do or say
             D
You're gonna break my heart anyway
        Cadd9     G                  D
So just leave the pieces when you go

(riff like intro)

Verse 2:
        D
You can drag out the heartache
Em
Baby you can make it quick
Cadd9
Really get it over with
         Cadd9  G    D 
And just let me move on
D
Don't concern yourself
Em
With this mess you've left for me
Cadd9
I can clean it up, you see
        G
Just as long you're gone


Chorus:
    G                  Cadd9
And it's alright, yeah I'll be fine,
      D
Don't worry 'bout this heart of mine,
    G          Cadd9            D   (Dsus4 D Dsus2 D)
Just take your love and hit the road
        G               Cadd9
There's nothing you can do or say
             D
You're gonna break my heart anyway
        Cadd9     G                  D
So just leave the pieces when you go


Bridge:
F
You not making up your mind
   Cadd9
Is killing me and wasting time
Bb                       Cadd9
I need so much more than that
G           Cadd9       D    Dsus4 D Dsus2 D
Yeah, yeah, yeah, yeah, yeah

solo: 

Guitar 1: G  Cadd9  D    G  Cadd9  D   Cadd9  G  D
Guitar 2:
E|-------------------2/3-2-0-2-2/3---5-7-8-7-5-5/7-5---5/7-8--8\7-5--3-|
B|--------1-3-5-1-3----------------------------------------------------|
G|0-2-4-0--------------------------------------------------------------|
D|---------------------------------------------------------------------|
A|---------------------------------------------------------------------|
E|---------------------------------------------------------------------|
e|--7h8-7-5-3h5h3-2----------------------------------------------------|
B|---------------------------------------------------------------------|
G|---------------------------------------------------------------------|
D|---------------------------------------------------------------------|
A|---------------------------------------------------------------------|
E|---------------------------------------------------------------------|
Chorus:
    G                  Cadd9
And it's alright, yeah I'll be fine,
      D
Don't worry 'bout this heart of mine,
    G          Cadd9            D
Just take your love and hit the road
        G               Cadd9
There's nothing you can do or say
             D
You're gonna break my heart anyway
        Cadd9     G                  D
So just leave the pieces when you go
        Cadd9     G                  D
So just leave the pieces when you go
        Cadd9     G                  D
So just leave the pieces when you go

Guitar 1:
G           Cadd9       D    
Yeah, yeah, yeah, yeah, yeah
G           Cadd9       D    
Yeah, yeah, yeah, yeah, yeah
G           Cadd9       D  
Yeah, yeah, yeah, yeah, yeah

Guitar 2:
e|-------------------------------------|
B|---------1-3-5-1-3--7/8\7-5-3-(1)----|
G|-0-2-4-0-----------------------------|
D|-------------------------------------|x3 ()last time only
A|-------------------------------------|
E|-------------------------------------|
        Cadd9     G                  D
So just leave the pieces when you go


| /  slide up
| \  slide down
| h  hold


The Wreckers Tabs & Chords



The Wreckers Tabs, Tablatures, Chords, Lyrics

Buy The Wreckers CD
The Wreckers
Buy The Wreckers CD

  1. The Wreckers - Crazy People (Capo 3) Chords
  2. The Wreckers - Crazy People (capo 1) Chords
  3. The Wreckers - Leave The Pieces (correct) Tabs
  4. The Wreckers - My Oh My Chords



cowboylyrics.com
All lyrics are property and copyright of their owners. All lyrics provided for educational purposes only.