Rick Trevino, Downside Of Love Tabs, Chords, Lyrics

Rick Trevino, Downside Of Love Tabs, Chords

 SITE MENU
 Request Tabs
 Add/Correct Tabs
 DMCA Policy
 Country Sheet Music
0

BROWSE LYRICS AND TABS BY ARTIST/BAND NAME: SEARCH HERE:
A B C D E F G H I J K L M N O P Q R S T U V W X Y Z #
 

Rick Trevino - Downside Of Love (Chords)


Rick Trevino CD
Rick Trevino Sheet music
Rick Trevino Posters
Intro:

Upper E string D-tuned for this way
 
  (D)               (F#m)

E-----------------------------------------------------------------------
B-----------------------------------------------------------------------
G-----------------------------------------------------------------------
D-----------------------------------------------------------------------
A--------------------------------2-4----4/5/4-0-------------------------
E----------0-0--2-3-4----4-4--7-----------------------------------------


Or like this:

    (D)               (F#m)

E-----------------------------------------------------------------------
B-----------------------------------------------------------------------
G-----------------------------------------------------------------------
D----------------------------7--9-11----11/12/11-7----------------------
A--------5-5--7-8-9----9-9----------------------------------------------
E-----------------------------------------------------------------------

 



Chords for the verses : (D)   (F#m)

Chords for the bridge : (G)   (D)   (A)

Chords for the chorus : (D)   (F#m)   
			
			(D)   (F#m)

			(G)   (Gm)  (D)   (Gm)

			(D)   (A)   (D)   (A)


Tab for the chorus:


Upper E string D-tuned 
 
  (D)               (F#m)

E----------------------------------------------------------------------
B----------------------------------------------------------------------
G-------------------------------6-9--7---------------------------------
D-----------------------------7----------------------------------------
A----------------------------------------------------------------------
E----------0-0--2-3-4----4-4-------------------------------------------


Trevino Rick Tabs & ChordsTrevino Rick Lyrics



Trevino Rick Tabs, Tablatures, Chords, Lyrics

Buy Trevino Rick CD
Trevino Rick
Buy Trevino Rick CD

  1. Trevino Rick - A Girl In A Pick-up Truck Chords
  2. Trevino Rick - Anytime Chords
  3. Trevino Rick - Bobby Ann Mason Chords
  4. Trevino Rick - Doctor Time Chords
  5. Trevino Rick - Downside Of Love Chords
  6. Trevino Rick - Dr. Time Chords
  7. Trevino Rick - Family Reunion Chords
  8. Trevino Rick - Full Deck Of Cards Chords
  9. Trevino Rick - Have You Ever Loved A Woman Chords
  10. Trevino Rick - Honky Tonk Crowd Chords
  11. Trevino Rick - I Only Get This Way with You Chords
  12. Trevino Rick - In My Dreams Chords
  13. Trevino Rick - Just Enough Rope Chords
  14. Trevino Rick - Just Enough Rope 2 Chords
  15. Trevino Rick - Learning As You Go Chords
  16. Trevino Rick - Learning As You Go 2 Chords
  17. Trevino Rick - Looking For The Light Chords
  18. Trevino Rick - Marys Just A Plain Jane Chords
  19. Trevino Rick - Memento Alla (spanish) Chords
  20. Trevino Rick - Only Get This Way With You Chords
  21. Trevino Rick - Poor, Broke, Mixed Up Mess Of A Heart Chords
  22. Trevino Rick - Running Out Of Reasons Chords
  23. Trevino Rick - Running Out Of Reasons 2 Chords
  24. Trevino Rick - Running Out Of Reasons 3 Chords
  25. Trevino Rick - San Antonio Rose To You Chords
  26. Trevino Rick - Save This One For Me Chords
  27. Trevino Rick - See Rock City Chords
  28. Trevino Rick - Separate Ways Chords
  29. Trevino Rick - She Cant Say I Didnt Cry Chords
  30. Trevino Rick - She Cant Say I Didnt Cry 2 Chords
  31. Trevino Rick - She Just Left Me Lounge Chords
  32. Trevino Rick - She Used To Say That To Me Chords
  33. Trevino Rick - The Pain Chords
  34. Trevino Rick - Un Momento Alla Chords
  35. Trevino Rick - Walk Out Backwards Chords
  36. Trevino Rick - You Are To Me Chords
  37. Trevino Rick - Youll Always Be Chords



cowboylyrics.com
All lyrics are property and copyright of their owners. All lyrics provided for educational purposes only.