, In A Blink Of An Eye Tabs, Chords, Lyrics

, In A Blink Of An Eye Tabs, Chords

 SITE MENU
 Request Tabs
 Add/Correct Tabs
 DMCA Policy
 Country Sheet Music
0

BROWSE LYRICS AND TABS BY ARTIST/BAND NAME: SEARCH HERE:
A B C D E F G H I J K L M N O P Q R S T U V W X Y Z #
 

- In A Blink Of An Eye (Tabs)


CD
 Sheet music
Posters
This is a very Traditional song.

(no playing)
In a blink of an eye
The sky can turn green
In a blink of an eye
It could change anything
In a blink of an eye
It could snow
And in a blink of an eye
The girl you love can go

                       D
She can steal your heart
                G
And a not let go
                      D
She could make you change
                      A
She can make you love, slow
                    D
I fell for that spell
             G
O so very well
                     D
I Thought she would stay
                       A
But she just turned it away
                     D
An in a blink of an eye
            G
It could rain
                     D
And in a blink of an eye
                   A
You can fell the pain

(chorus)
                   D
In a blink of an eye
                    G
The sky can turn green
                      D
And in a blink of an eye
                      A
It could change anything
                  D
In a blink of an eye
             G
It could snow
                    D
And in a blink of eye
                       A
The girl you love can go

(solo)
D,G,D,A

E-------------------------
B-------------------------
G-------------------------
D-1-0-1-2-0---------------
A-------------------------
E-------------------------

E-------------------------
B-------------------------
G-1-2-3-0-----------------
D-------------------------
A-------------------------
E-------------------------

E-------------------------
B-------------------------
G-------------------------
D-2-4-0-2-4-0-------------
A-------------------------
E-------------------------

E-------------------------
B-------------------------
G-------------------------
D-------------------------
A-1-3-0-1-3-0-------------
E-------------------------

x2
(back to chorus)

                    D
In a blink of an eye
                   G
It all could go wrong
                  D
In a blink of an eye
                 A
I can end this song
                  D
In a blink of an eye

(outro)
D,G,D,A fade


Trinity James Tabs & Chords



Trinity James Tabs, Tablatures, Chords, Lyrics

Buy Trinity James CD
Trinity James
Buy Trinity James CD

  1. Trinity James - I'm Just Describing Chords
  2. Trinity James - In A Blink Of An Eye Tabs
  3. Trinity James - My Hearts A Candle Chords
  4. Trinity James - Road Less Travelled Chords
  5. Trinity James - Scares And Scrapes Chords



cowboylyrics.com
All lyrics are property and copyright of their owners. All lyrics provided for educational purposes only.