John Williamson, Galleries Of Pink Galahs Tabs, Chords, Lyrics

John Williamson, Galleries Of Pink Galahs Tabs, Chords

 SITE MENU
 Request Tabs
 Add/Correct Tabs
 DMCA Policy
 Country Sheet Music
0

BROWSE LYRICS AND TABS BY ARTIST/BAND NAME: SEARCH HERE:
A B C D E F G H I J K L M N O P Q R S T U V W X Y Z #
 

John Williamson - Galleries Of Pink Galahs (Tabs)


John Williamson CD
John Williamson Sheet music
John Williamson Posters
CAPO 8TH FRET


INTRO/VERSE RIFF:
-----------------
D D/C# G/B D/A
E|-------2-------2---------2-------------------------------2-------|
B|-----3-------3---------3-------3-------3-------3-------3-------3-|
G|---2-------2---------2-------2-------0-------0-------2-------2---|
D|-0-----------------0-------0-------0-------0-------0-------0-----|
A|-----------------4---------------2---------------0---------------|
D|-----------------------------------------------------------------|

G6 D/F# D/A D/E D/A D
E|---------0-----------------------------------------------2-------|
B|-------0-------0-------3-------3-------3-------3-------3-------3-|
G|-----0-------0-------2-------2-------2-------2-------2-------2---|
D|---0-------0-------0-------0-------0-------0-------0-------0-----|
A|-------------------------0---------------0-----------------------|
D|-5---------------4---------------2---------------0---------------|


D D/C# G/B D/A
Galleries of pink galahs, crystal nights with diamond stars
G6 D/F# D/A D/E D/A D
Apricots preserved in jars, that's my home
D D/C# G/B D/A
Land of oceans in the sun, purple hazes, river gum
G6 D/F# D/A D/E D/A D
It breaks your heart when rain won't come, it breaks your heart


D G6/D D G6/D
It takes a harsh and cruel drought to sort the weaker saplings out
G6/D D
It makes room for stronger trees, maybe that's what life's about
D G6/D D G6/D
Winter's come, the hills are brown, the shops are closed, the blinds 

are down
D G6/D D
Everybody's leaving town, they can't go on





D D/C# G/B D/A
The south wind through verandah gauze, whines and bangs the homestead 

doors
G6 D/F# D/A D/E D/A D
A mother curses dusty floors, and feels alone
D D/C# G/B D/A
Trucks and bulk bins filled with rust, boy leaves home to make a crust
G6 D/F# D/A D/E D/A D
A father's dreams reduced to dust, but he must go on


D G6/D D G6/D
Tortured redgums unashamed, sunburnt country, wisely named
G6/D D
Chisel ploughed and wire claimed, but never never, never tamed


SOLO: (Not relative to capo, played on electric guitar)
-----
D G6/D D G6/D
E|-----------------------------------------------------------------|
B|-----------------------------------------------------------------|
G|---------------------------------------7-8-7-10-9----------------|
D|-8----------7--8-10----8-7-----------8-----------10--------------|
A|---------------------------11------8-----------------------------|
D|-----------------------------------------------------------------|

D G6/D D
E|-----------------------------------------------------------------|
B|----------11-10-11-----------------------------------------------|
G|----7-8-10--------12--12--------8---------7-----------------7-8--|
D|--8------------------------------------------10-8----------------|
A|-----------------------------------------------------------------|
D|-----------------------------------------------------------------|

D D/C# G/B D/A
E|-------------------------11-10-----------13----------15--13------|
B|---11-10-11--------------------11------------------15--15--15----|
G|-10--------10----12--------------10--------------------------15--|
D|-----------------------------------------------------------------|
A|-----------------------------------------------------------------|
D|-----------------------------------------------------------------|

G6 D/F# D/A D/E D/A D
E|---------18------------------------------------------------------|
B|-15-16-18----18--16-15-16-18-18----------------------------------|
G|---------------------------------15------------------------------|
D|-----------------------------------------------------------------|
A|-----------------------------------------------------------------|
D|-----------------------------------------------------------------|


D D/C# G/B D/A
Whirlwind swirls a paper high, same old news of further dry
G6 D/F# D/A D/E D/A D
Of broken clouds just passing by, that's my home
D D/C# G/B D/A
Land of oceans in the sun, purple hazes, river gum
G6 D/F# D/A D/E D/A D
It breaks your heart when rain won't come, it breaks your heart





End On D Chord


Williamson John Tabs & ChordsWilliamson John Lyrics



Williamson John Tabs, Tablatures, Chords, Lyrics

Buy Williamson John CD
Williamson John
Buy Williamson John CD

  1. Williamson John - And The Band Played Waltzing Chords
  2. Williamson John - Anything You Ask Chords
  3. Williamson John - Back At The Isa Chords
  4. Williamson John - Boogie With Me Baby Chords
  5. Williamson John - Caker Night Chords
  6. Williamson John - Cootamundra Wattle Chords
  7. Williamson John - Diamantina Drover Chords
  8. Williamson John - Fattening Frogs For Snakes Chords
  9. Williamson John - Galleries Of Pink Galahs Tabs
  10. Williamson John - Goodbye Blinky Bill Chords
  11. Williamson John - Home Among The Gum Trees Chords
  12. Williamson John - Humpin' My Bluey Chords
  13. Williamson John - Little Girl From The Dryland Chords
  14. Williamson John - Mallee Boy Chords
  15. Williamson John - Paint Me A Wheelbarrow Chords
  16. Williamson John - Raining On The Plains Again Chords
  17. Williamson John - Rip Rip Wood Chip Chords
  18. Williamson John - Salisbury Street Chords
  19. Williamson John - Shelter Tabs
  20. Williamson John - The Budgie Song Chords
  21. Williamson John - Three Sons Chords
  22. Williamson John - True Blue Chords
  23. Williamson John - Wildlife Warriors Its Time Chords
  24. Williamson John - Woman On The Land Chords



cowboylyrics.com
All lyrics are property and copyright of their owners. All lyrics provided for educational purposes only.