Dwight Yoakam, Turn Me Loose Tabs, Chords, Lyrics

Dwight Yoakam, Turn Me Loose Tabs, Chords

 SITE MENU
 Request Tabs
 Add/Correct Tabs
 DMCA Policy
 Country Sheet Music
0

BROWSE LYRICS AND TABS BY ARTIST/BAND NAME: SEARCH HERE:
A B C D E F G H I J K L M N O P Q R S T U V W X Y Z #
 

Dwight Yoakam - Turn Me Loose (Chords)


Dwight Yoakam CD
Dwight Yoakam Sheet music
Dwight Yoakam Posters

TURN IT ON, TURN ME UP, TURN ME LOOSE (Kostas / Wayland Patton)
performed by Dwight Yoakam on IF THERE WAS A WAY (1990)
transcribed by Mark Albert markalbert@pipeline.com


CHORD CHART (M.M. = 181)
|INTRO |VERSE 1 |CHORUS |TAG |SOLO |VERSE 2 |CHORUS |CHORUS |CODA |

INTRO:
|E |E |E |E |

VERSE:
|E |E |E |E |B |B |B |B |B |B |B |B |E |E |E |E |
|E |E |E |E |B |B |B |B |B |B |B |E |E |

CHORUS:
|A |A |A |A |E |E |E |E |A |A |A |A |E |E |B |E |E |

TAG:
|E |E |E |E |

SOLO:
|B |B |B |B |B |B |B |B |E |E |
|E |E |E |E |B |B |B |B |B |B |B |E |E |E |E |

CODA:
|E |E |B |E |E |



INTRO (see TAB below)


VERSE 1 (see riffs 1 & 2 TAB below)
         E          (riff 1)
Well I'm back again
    B            (riff 2)
For another night
                                                             E
Of trying to break free from the sadness that I can't lay to rest
         E         (riff 1)
This old honky-tonk
           B             (riff 2)
Sure does feel like home
                                                    E
And the music with the laughter seems to soothe my loneliness


CHORUS (see TAB below)
           A
So turn it on, turn it up, turn me loose
                        E
From her memory that's drivin' me lonely, crazy, and blue
   A
It helps me forget her so the louder the better
     E                          B          E
Hey mister turn it on, turn it up, turn me loose


GUITAR AND MANDOLIN SOLO (see guitar TAB below)


VERSE 2
                  E      (riff 1)
If a tear should fall
             B               (riff 2)
If I should whisper her name
        B
To some stranger I'm holdin' while we're
                              E
dancin' to an old Buck Owens song
       E             (riff 1)
I know she won't mind
          B        (riff 2)
She won't even know
           B                                             E
She'll be dancin' with a memory cryin' teardrops of her own


(CHORUS, see TAB below)


(repeat CHORUS, see TAB below)


CODA (see TAB below)

                   * * * * *

INTRO TAB
   ________
  |__|__|__|       |         |       |  |    |  |    |  |    |  |
  |  |  |  |    |\ |      |\ |       |  |    |  |    |  |    |  |  
|-------------|--------------------|-------|-------|-------|-------|
|-------------|--------------------|-------|-------|-------|-------|
|-------------|--------------------|-------|-------|-------|-------|
|-------------|--------------------|-------|-------|-------|-------|
|-------------|--------------------|----2--|----2--|----2--|----2--|
|-x--x--x--x--|-2-(3)----2-(3)-----|-0-----|-0-----|-0-----|-0-----|
                 \/       \/
                  B        B


RIFF 1
   ___________
  |___|___|___|            |               |
  |   |   |   |      |\    |          |\   |            
|------------------|----------------------------------|------------|
|------------------|----------------------------------|------------|
|------------------|----------------------------------|------------|
|------------------|----------------------------------|------------|
|------------------|----------------------------------|------------|
|-x---x---x---x----|--2---(3)---------2---(3)---------|-0----------|
                       \/              \/
                        B               B

RIFF 2
   ___________
  |___|___|___|            |               |
  |   |   |   |      |\    |          |\   |            
|------------------|----------------------------------|------------|
|------------------|----------------------------------|------------|
|------------------|----------------------------------|------------|
|------------------|----------------------------------|------------|
|-x---x---x---x----|--4---(6)---------4---(6)---------|-2----------|
|------------------|---\/--------------\/-------------|------------|
                        B               B


CHORUS TAB

           ___                       ____    _____              
      |\  |   |     |      |        |   _|  |_|_|_|   |      |
   /| |   |   |     |      |        |.   |  | | | |   |      |
|-----------------|---------------|-----------------|--------------|
|-----------------|---------------|-----------------|--------------|
|-----------------|---------------|-----------2-----|--------------|
|-----------------|---------------|-2----2--4---4-2-|--------------|
|-----------------|-0------4------|-------\/--------|-0------4-----|
|-----0---2---4---|-------/-------|--------H--------|-------/------|

   ____   _____                     ____   _____
  |   -| |_|_|_|   |      |        |   _| |_|_|_|   |       |
  |.   | | | | |   |      |        |.   | | | | |   |       |
|----------------|---------------|----------------|----------------|
|----------------|---------------|----------------|----------------|
|----------2-----|---------------|----------------|----------------|
|-2----2-4---4-2-|---------------|----------2-----|----------------|
|-------\/-------|---------------|-2----2-4---4-2-|----------------|
|--------H-------|-0------4------|-------\/-------|-0-------2------|
                                          H
                                   _____   _____
  |      |        |      |        |    _| |_|_|_|   |      |
  |      |        |      |        |.    | | | | |   |      |
|---------------|---------------|-----------------|----------------|
|---------------|---------------|-----------------|----------------|
|---------------|---------------|-----------2-----|----------------|
|---------------|---------------|-2-----2-4---4-2-|----------------|
|---------------|-0------4------|--------\/-------|-0------4-------|
|-3------4------|---------------|---------H-------|----------------|

   ____   _____                     ____   ___      ___   _____
  |   _| |_|_|_|   |      |        |   _| |_| |    |  _| |_|_|_|
  |.   | | | | |   |      |        |.   | | | |    |.  | | | | |
|----------------|---------------|----------------|----------------|
|----------------|---------------|----------------|----------------|
|----------2-----|---------------|----------------|----------------|
|-2----2-4---4-2-|---------------|----------2-----|----------4-----|
|-------\/-------|---------------|-2----2-4---4---|2---2-4-6---6---|
|--------H-------|-0------4------|-------\/-------|-------\/-------|
                                          H                H

                         ___     ___
                _       |   |   |   |     |     |
               |_|      |   |   |   |     |     |
|----------|---------|------------------|---------------|-<12>-----|
|----------|---------|------------------|---------------|----------|
|----------|---------|------------------|---------------|----------|
|----------|---------|------------------|---------------|----------|
|----------|---------|------------------|---------------|----------|
|-0--------|---------|-(3)--2--(3)--2---|-0-----<7>-----|----------|
                          \/     \/ 
                           R      R

 
SOLO TAB (CD = 1:12)
   ___ _     _____   _____
  |   |_|   |_|_|_| |_|_|_|                            _
  |   | |   | | | | | | | |                           |_|
|---------|-----------------|-----------------|--------------------|
|---------|-----------------|-----------------|--------------------|
|---------|-----------------|-----------------|--------------------|
|-----4---|-4-6-7-6-4---6---|-4---------------|--------------------|
|-6-----6-|--\/\/\/\/-6---6-|-----------------|--------------------|
|/--------|---H-H-P-P-------|-----------------|--------------------|


        ___       __ _     ___     ___              _____   _____
     |\|_| |     |  |_|   |_|_|   |   |       |\   |_|_|_| |_|_|_|
  /| | | | |     |  | |<| | | |   |   |  /|   |    | | | | | | | |
|--------------|----------------|----------------|-----------------|
|--------------|----------------|----------------|-----------------|
|--------------|----------------|----------------|-----------------|
|------4---4---|-7--6-4-----6---|-4---6----------|-4-----4-2-0---0-|
|----6---6-----|/----\/---6---6-|------------6---|---5-6--\/\/-4---|
|---/----------|------P---------|-----------/----|----\/---S-P-----|
                                                       H

   ________    _____                    ______ 
  |__|__|__|  |__|__|        |         |      |
  |  |  |  |  |  |  |        |         |      |
|-------------------------|--------------------------|-------------|
|-------------------------|--------------------------|-------------|
|-------------------------|--------------------------|-------------|
|-------------------------|--------------------------|-------------|
|-4--2--0-----0-----------|--------------------------|-------------|
|--\/-\/---4-----4--2-----|-0----------<5>----<7>----|-<12>--------|
    P  P          \/
                   P

CODA TAB

   ___________
  |___|___|___|            |               |
  |   |   |   |      |\    |          |\   |            
|------------------|----------------------------------|------------|
|------------------|----------------------------------|------------|
|------------------|----------------------------------|------------|
|------------------|----------------------------------|------------|
|------------------|----------------------------------|------------|
|-x---x---x---x----|--2---(3)---------2---(3)---------|-0----------|
                       \/              \/
                        B               B


Yoakam Dwight Tabs & ChordsYoakam Dwight Lyrics



Yoakam Dwight Tabs, Tablatures, Chords, Lyrics

Buy Yoakam Dwight CD
Yoakam Dwight
Buy Yoakam Dwight CD

  1. Yoakam Dwight - 1000 Miles Chords
  2. Yoakam Dwight - 1000 Miles Chords
  3. Yoakam Dwight - 1000 Miles 2 Chords
  4. Yoakam Dwight - 3 Pears Chords
  5. Yoakam Dwight - A Heart Like Mine Chords
  6. Yoakam Dwight - A Long Way Home Chords
  7. Yoakam Dwight - A Place To Cry Chords
  8. Yoakam Dwight - A Promise You Can't Keep Chords
  9. Yoakam Dwight - A Thousand Miles From Nowhere Tabs
  10. Yoakam Dwight - A Thousand Miles from Nowhere Chords
  11. Yoakam Dwight - A World Of Blue Chords
  12. Yoakam Dwight - Aint That Lonely Yet Chords
  13. Yoakam Dwight - Alright, I'm Wrong Chords
  14. Yoakam Dwight - Always Late With Your Kisses Chords
  15. Yoakam Dwight - An Exception To The Rule Chords
  16. Yoakam Dwight - Baby Don't Go Chords
  17. Yoakam Dwight - Baby Why Not Chords
  18. Yoakam Dwight - Back Of Your Hand Chords
  19. Yoakam Dwight - Blame The Vain Chords
  20. Yoakam Dwight - Buenas Noches From Lonely Chords
  21. Yoakam Dwight - Buenas Noches From Lonely 2 Chords
  22. Yoakam Dwight - Bury Me Chords
  23. Yoakam Dwight - Bury Me Acoustic Tabs
  24. Yoakam Dwight - Carmelita Chords
  25. Yoakam Dwight - Claudette Chords
  26. Yoakam Dwight - Come On Christmas Chords
  27. Yoakam Dwight - Crazy Little Thing Tabs
  28. Yoakam Dwight - Darkest Hour Chords
  29. Yoakam Dwight - Dixie Chords
  30. Yoakam Dwight - Does It Show Chords
  31. Yoakam Dwight - Doin' What I Did Tabs
  32. Yoakam Dwight - Dont Be Sad Chords
  33. Yoakam Dwight - Down Where The River Bends Chords
  34. Yoakam Dwight - Dreams Of Clay Tabs
  35. Yoakam Dwight - Fair To Midland Chords
  36. Yoakam Dwight - Fast As You Chords
  37. Yoakam Dwight - Floyd County Chords
  38. Yoakam Dwight - For Love's Sake Tabs
  39. Yoakam Dwight - Free To Go Chords
  40. Yoakam Dwight - Gone (That'll Be Me) Chords
  41. Yoakam Dwight - Good Time Charlies Got The Chords
  42. Yoakam Dwight - Guitars Cadillacs Chords
  43. Yoakam Dwight - Guitars, Cadillacs (Intro) Chords
  44. Yoakam Dwight - Heart That You Own Chords
  45. Yoakam Dwight - Here Comes The Night Tabs
  46. Yoakam Dwight - Hey Little Girl Tabs
  47. Yoakam Dwight - Hold On To God Chords
  48. Yoakam Dwight - Home For Sale Chords
  49. Yoakam Dwight - Honky Tonk Man Chords
  50. Yoakam Dwight - I Hear You Knockin' Tabs
  51. Yoakam Dwight - I Sang Dixie Chords
  52. Yoakam Dwight - I Wanna Love Again Chords
  53. Yoakam Dwight - I Want You To Want Me (corrected) Chords
  54. Yoakam Dwight - I'd Avoid Me Too Chords
  55. Yoakam Dwight - I'll Go Back To Her Chords
  56. Yoakam Dwight - I'll Just Take These Chords
  57. Yoakam Dwight - I'll Pretend Chords
  58. Yoakam Dwight - I'm Bad, I'm Nationwide Chords
  59. Yoakam Dwight - If There Was A Way Chords
  60. Yoakam Dwight - Ill Be Gone Chords
  61. Yoakam Dwight - Intentional Heartache Chords
  62. Yoakam Dwight - It Is Well With My Soul Chords
  63. Yoakam Dwight - It Only Hurts When I Cry Chords
  64. Yoakam Dwight - It Wont Hurt Chords
  65. Yoakam Dwight - Johnsons Love Chords
  66. Yoakam Dwight - Just Passin' Time Chords
  67. Yoakam Dwight - King Of Fools Chords
  68. Yoakam Dwight - Late Great Golden State Chords
  69. Yoakam Dwight - Little Sister Chords
  70. Yoakam Dwight - Little Ways Chords
  71. Yoakam Dwight - Lonesome Road Chords
  72. Yoakam Dwight - Long White Cadillac Chords
  73. Yoakam Dwight - Love Caught Up To Me Chords
  74. Yoakam Dwight - Lucky That Way Chords
  75. Yoakam Dwight - Maybe You Like It, Maybe You Don't Chords
  76. Yoakam Dwight - Miners Prayer Chords
  77. Yoakam Dwight - Miners Prayer 2 Chords
  78. Yoakam Dwight - Never Hold You Chords
  79. Yoakam Dwight - No Future In Sight Chords
  80. Yoakam Dwight - No Such Thing Chords
  81. Yoakam Dwight - Nothing Chords
  82. Yoakam Dwight - Nothings Changed Here Chords
  83. Yoakam Dwight - Oh Lonesome Me Chords
  84. Yoakam Dwight - One More Name Chords
  85. Yoakam Dwight - One More Night Chords
  86. Yoakam Dwight - Only Hurts When I Cry Chords
  87. Yoakam Dwight - Only Want You More Chords
  88. Yoakam Dwight - Playboy Chords
  89. Yoakam Dwight - Please Please Baby Chords
  90. Yoakam Dwight - Pocket Of A Clown Chords
  91. Yoakam Dwight - Population Me Chords
  92. Yoakam Dwight - Promise You Cant Keep Chords
  93. Yoakam Dwight - Readin', Rightin', Rt.23 Tabs
  94. Yoakam Dwight - Rocky Road Blues Chords
  95. Yoakam Dwight - Sad, Sad Music Chords
  96. Yoakam Dwight - Same Fool Chords
  97. Yoakam Dwight - Santa Cant Stay Chords
  98. Yoakam Dwight - Send A Message To My Heart Chords
  99. Yoakam Dwight - Send Message To Heart Chords
  100. Yoakam Dwight - She'll Remember Chords
  101. Yoakam Dwight - Sin City (with K.d. Lang) Chords
  102. Yoakam Dwight - Since I Started Drinkin' Again Chords
  103. Yoakam Dwight - Sloop John B Chords
  104. Yoakam Dwight - Smoke Along The Track Chords
  105. Yoakam Dwight - Some Dark Holler Chords
  106. Yoakam Dwight - Somewhere Tabs
  107. Yoakam Dwight - Sorry You Asked Chords
  108. Yoakam Dwight - South Of Cincinnati Chords
  109. Yoakam Dwight - South Of Cincinnati 2 Chords
  110. Yoakam Dwight - Stayin' Up Late Chords
  111. Yoakam Dwight - Streets Of Bakersfield Intro Chords
  112. Yoakam Dwight - Suspicious Minds Chords
  113. Yoakam Dwight - Takes Lot To Rock You Baby Chords
  114. Yoakam Dwight - Tears For Two Tabs
  115. Yoakam Dwight - That's Okay Chords
  116. Yoakam Dwight - The Back Of Your Hand Chords
  117. Yoakam Dwight - The Curse Chords
  118. Yoakam Dwight - The Distance Between You And Me Tabs
  119. Yoakam Dwight - The Heart That You Own Chords
  120. Yoakam Dwight - The Heartaches Are Free Chords
  121. Yoakam Dwight - The Last Heart In Line Chords
  122. Yoakam Dwight - The Last Surrender Chords
  123. Yoakam Dwight - The Late Great Golden State Chords
  124. Yoakam Dwight - The Locomotion Chords
  125. Yoakam Dwight - The Sad Side Of Town Chords
  126. Yoakam Dwight - These Arms Tabs
  127. Yoakam Dwight - Things Change Chords
  128. Yoakam Dwight - Thinking About Leaving Chords
  129. Yoakam Dwight - This Drinkinll Kill Me Chords
  130. Yoakam Dwight - This Much I Know Chords
  131. Yoakam Dwight - Thousand Miles Chords
  132. Yoakam Dwight - Throughout All Time Chords
  133. Yoakam Dwight - Time Spent Missing You Chords
  134. Yoakam Dwight - Tired Of Waiting For You Chords
  135. Yoakam Dwight - Trains Boats & Planes Chords
  136. Yoakam Dwight - Traveler's Lantern Tabs
  137. Yoakam Dwight - Truckin' Chords
  138. Yoakam Dwight - Try Not To Look So Pretty Chords
  139. Yoakam Dwight - Turn It On Up Loose Chords
  140. Yoakam Dwight - Turn Me Loose Chords
  141. Yoakam Dwight - Two Doors Down Chords
  142. Yoakam Dwight - Understand Your Man Chords
  143. Yoakam Dwight - Watch Out Chords
  144. Yoakam Dwight - What Do You Know About Love Chords
  145. Yoakam Dwight - What I Don't Know Chords
  146. Yoakam Dwight - Whats Left Of Me Chords
  147. Yoakam Dwight - When I First Came Here Chords
  148. Yoakam Dwight - Who At The Door Is Standing Tabs
  149. Yoakam Dwight - Wild Ride Chords
  150. Yoakam Dwight - Witchita Lineman Chords
  151. Yoakam Dwight - Yet To Succeed Chords
  152. Yoakam Dwight - Youre The One Chords



cowboylyrics.com
All lyrics are property and copyright of their owners. All lyrics provided for educational purposes only.