Zac Brown Band, Let It Go Tabs, Chords, Lyrics

Zac Brown Band, Let It Go Tabs, Chords

 SITE MENU
 Request Tabs
 Add/Correct Tabs
 DMCA Policy
 Country Sheet Music
0

BROWSE LYRICS AND TABS BY ARTIST/BAND NAME: SEARCH HERE:
A B C D E F G H I J K L M N O P Q R S T U V W X Y Z #
 

Zac Brown Band - Let It Go (Chords)


Zac Brown Band CD
Zac Brown Band Sheet music
Zac Brown Band Posters
Guitar is tuned a 1/2 step down. 

E--------------------------------------------------------------------------------
B----------------3--33--3--1/3--1----------------------------------------3-0h1/3-
G----------------0--00--4--2/4--2-0-------------2-0----------------0-----0-0h2/4-
D---------0-2p0---------------------2-0--0h2p0------2p0--------------2p0---------
A------2------------------------------------------------2------2-----------------
E-3-3------------------------------------------------------3-3---3-------3-------


E----------2-------
B-1--1--1--3-------
G-2--0--0--2-------
D-2--0--2--0-------
A-0--2--3----------
E------------------
                    
E---------------------------------------------------------------------------------
B-----------------3--33--3--1/3--1---------------------------------------3-0h1/3--
G-----------------0--00--4--2/4--2-0-------------2-0---------------------0-0h2/4--
D----------0-2p0---------------------2-0--0h2p0------2p0-----------0-2p0----------
A-------2------------------------------------------------2------2-----------------
E--3-3------------------------------------------------------3-3-------------------

E-------------3-----
B-1--1--1--3--3-----
G-0--0--2--2--0-----
D-2--0--2--0--0-----
A-3--2--0--0--2-----
E----------2--3-----


G                                           C              G
Spent the night with a friend of mine and a handle of good whiskey
G                                          C               G
We picked guitars and talked about how the glory days went missin'
C                                   G      D/F#        Em
It didn't take too long to find the truth inside that bottle
C              G             D                G
Cast a-sea so long ago was a message from my father

               C                                      G 
You keep your heart above your head and you eyes wide open
G                                           D
So this world can't find a way to leave you cold
                Em            D/F#             Em D/F# G  
And know you're not the only ship out on the ocean
(Walk up to) C                      D                  
Save your strength for things that you can change
C                    D
Forgive the ones you can't
 N.C
You gotta let it go

E---------------------------------------------------------------------
B---------------------------------------------------------------------
G--------------------------------0h2h4/5-0--4-5-4-0-------------------
D--------------------2-0---0-2h4--------------------0-2-0-------------
A-----2--3--2---2-3----------------------------------------3-0-2------
E--3----------3-------------------------------------------------------


G                             C                G
Looking back now on my life I can't say I regret it
G                                            C               G
And all the places that I ended up not the way Ma woulda had it
C                                        G        D/F#       Em
But you only get once chance at life to leave your mark upon it
           C             G                    D
And when a pony he comes riding by you better set your sweet ass on it

(This is the main riff with one harmony)

E----------------2-3-- E-------------0-2-5-7-
B----------0-1-3------ B--0-000--1-3---------                       
G--0-000-2------------ G---------------------
D--------------------- D---------------------
A--------------------- A---------------------
E--------------------- E---------------------

               C                                      G 
You keep your heart above your head and you eyes wide open
G                                           D
So this world can't find a way to leave you cold
                Em            D/F#             Em D/F# G  
And know you're not the only ship out on the ocean
(Walk up to) C                      D                  
Save your strength for things that you can change
C                    D
Forgive the ones you can't
 N.C
You gotta let it go

E---------------------------------------------------------------------
B---------------------------------------------------------------------
G--------------------------------0h2h4/5-0--4-5-4-0-------------------
D--------------------2-0---0-2h4--------------------0-2-0-------------
A-----2--3--2---2-3----------------------------------------3-0-2------
E--3----------3-------------------------------------------------------


(This just gives you a leg up on the fingerpicking - it's not 100% accurate)

E---------------------0--------0h2---0-----------3----------0----------0h2-0--
B-----------------0---1----1---3-------3--0----3-3----------1---1------3----3-
G--0----0-0--0--2--------0--0-------------0----0------------------0-----------
D-----0------------------------0---0---------0-----------0-------------0------
A---------------------3-3----------------------------0h2----3-3-----3---------
E--3-3---3---3----------------------------3-3------3--------------------------

E--0--------------------0-----------3------------0--------0-0-------------------3-
B--0--------------------1---1-0--0----0--3-------0----0---1-0--3-------------0----
G--0--------0-2-0----------------0-------2---2-------0-0-------2---2p0-0---0---0--
D------2-0-2------2-0-----------------------0-0----------------0-0----------------
A-----------------------3-3-------------------------------3-3---------------------
E--0--0-0-0--0-------------------3-3-----2-2-----0-0----------------------3-------

(Fingerpicking progression)

Like a sweet sunset in Georgia let it go
And like the fear that grabs ahold ya let it go
Let it go
Let it go


               C                                      G 
You keep your heart above your head and you eyes wide open
G                                           D
So this world can't find a way to leave you cold
                Em            D/F#             Em D/F# G  
And know you're not the only ship out on the ocean
(Walk up to) C                      D                  
Save your strength for things that you can change
C                    D
Forgive the ones you can't
 N.C
You gotta let it go

E-----------------------------------------------------------------------
B-----------------------------------------------------------------------
G--------------------------------0h2h4/5-0--4-5-4-0-------0-2-4-5-0-----
D--------------------2-0---0-2h4--------------------0-2-4---------------
A-----2--3--2---2-3-----------------------------------------------------
E--3----------3---------------------------------------------------------

(The acoustic does something like this... I don't know...it sounds cool anyways :p )


E---------------------------------------------------------------------------------
B---------------------------------------------------------------------------------
G------00-------00-------00-------00------00-----4p0---5p0----7p0---5p0----4p0----
D--4/5------4/5-----4/5------4/5------4/5-----5------5-----5------5------5-----5--
A---------------------------------------------------------------------------------
E---------------------------------------------------------------------------------

End Riff:
E--/3-0---0-----------------3-----
B-------3-----3-------------3-----
G-------------2brp0---------0-----
D--------------------2-0----0-----
A---------------------------2-----
E---------------------------3-----


Zac Brown Band Tabs & ChordsZac Brown Band Lyrics



Zac Brown Band Tabs, Tablatures, Chords, Lyrics

Buy Zac Brown Band CD
Zac Brown Band
Buy Zac Brown Band CD

  1. Zac Brown Band - As She's Walking Away Chords
  2. Zac Brown Band - As She's Walking Away Tabs
  3. Zac Brown Band - As She's Walking Away (intro) Tabs
  4. Zac Brown Band - Bar Chords
  5. Zac Brown Band - Chicken Fried Chords
  6. Zac Brown Band - Cold Hearted Chords
  7. Zac Brown Band - Colder Weather Chords
  8. Zac Brown Band - Come Pick Me Up Chords
  9. Zac Brown Band - Day That I Die Chords
  10. Zac Brown Band - Different Kinf Fine Chords
  11. Zac Brown Band - Every Little Bit Of Your Love Chords
  12. Zac Brown Band - Free Chords
  13. Zac Brown Band - Gonna Make This Day Chords
  14. Zac Brown Band - Highway 20 Ride Chords
  15. Zac Brown Band - I Play The Road Chords
  16. Zac Brown Band - It' Not Ok Chords
  17. Zac Brown Band - Jolene Chords
  18. Zac Brown Band - Junkyard Chords
  19. Zac Brown Band - Keep Me In Mind Chords
  20. Zac Brown Band - Knee Deep Chords
  21. Zac Brown Band - Let It Go Chords
  22. Zac Brown Band - Martin Chords
  23. Zac Brown Band - Mary Chords
  24. Zac Brown Band - No Hurry Chords
  25. Zac Brown Band - Nothing Chords
  26. Zac Brown Band - On This Train Chords
  27. Zac Brown Band - Sic 'em On A Chiken Chords
  28. Zac Brown Band - Stay Chords
  29. Zac Brown Band - Sweet Annie Chords
  30. Zac Brown Band - Toes Chords
  31. Zac Brown Band - Whatever It Is Chords
  32. Zac Brown Band - Where The Boat Leaves From Chords



cowboylyrics.com
All lyrics are property and copyright of their owners. All lyrics provided for educational purposes only.