Norman Blake, Man Of Constant Sorrow (instrumental) Tabs, Chords, Lyrics

Norman Blake, Man Of Constant Sorrow (instrumental) Tabs, Chords

 SITE MENU
 Request Tabs
 Add/Correct Tabs
 DMCA Policy
 Country Sheet Music
0

BROWSE LYRICS AND TABS BY ARTIST/BAND NAME: SEARCH HERE:
A B C D E F G H I J K L M N O P Q R S T U V W X Y Z #
 

Norman Blake - Man Of Constant Sorrow (instrumental) (Tabs)


Norman Blake CD
Norman Blake Sheet music
Norman Blake Posters
Norman Blake  -  Man Of Constant Sorrow (instrumental)



This song is a bit too repetitive to tab all the way through, so I've tabbed
what I classed as the 1st and 2nd parts of the song.

Once you've learned these, the rest of the song is kinda just mixes of these two
parts repeated over and over, so it shouldn't be too hard for you to figure out.


*******************************************************************************************

h   =   hammer-on                                        /   =   slide up

\   =   slide down                                       p   =   pulloff

*******************************************************************************************



E--------------------------------3-3----------0-------0-----------------1-1/2-0-----------
B------------3--3--3---3---------0-0--0-1/3-3-3-1---1-1-1--1-1-1-1----1-1-2/3--3-3-3---3\-
G-------0-0----0--0--0---------0-0-0--0-2/4-4---2p0-0---0h2--0-0-0-0-0--2-1/2----2--2-2---
D--0-0-3--4h5-5--5--5-5-0-0-0-0--0---0----------------------2-----2-----0-0------0--0-0---
A-----------------------------------2-----------------------3-----3-----------------------
E-----------------------------------------------------------------------------------------


E-----------------3------------------------------------3-3------------0----0-0------
B---1h3p1p0-1/3--3-0-0-0-0-0-0----3--3--3---3-3--------0-0---0-0-1/3--3-1--1-1-1--1-
G--2--------2/4-0--0---0-0-0-0------0--0--0-0-0--4\2-0-0-0-0-0-0-2/4-4--2p0----0h2--
D--0--------------3-2-0----0-0-3/5-5--5--5-----0-0--0--0-0-0-------------------------
A-------------------------2----------------------------------------------------------
E------------------------------------------------------------------------------------

           rake
E--------------1-1/2-0-2---2-2--------------3-3------3-3------------------------------
B----1-1--1--1-1-2/3----3-3------1h3p1-1/3--0-0--0-0-0-0-0-0--0-0---0---0------0-0--0-
G----0-0--0-0--2-1/2----------2-2------2/4-0-----0-0-0-0-0-0--0-0--0---0-----0-0-0--0-
D--2-2-2---2---0-0------------0----------------0----0---0-----0-0-0---0-----0--0-0-0--
A--3-----3--------------------------------------3---2--------5---5---5---5-2----------
E-----------------------------------------------------------------------------3---3---


E------------------------------------------------------------3-3-3-3-3---3-3--
B-----0-0--------1-1--1-1---1-1------------------------------0-0-0-0-0---0-0--
G-----0-0----0---0-0--0-0---0-0------2------2-2----0-0---0---0-0-0-0-0---0-0--
D-----0-0----0---2-2-2------2-2-3---0----0-0-----0-0-0---0-0-0-0-0-0-0-0-0-0--
A--0h2---2p0--0-3--------0h3---3-3-3--3h5------0-3---1h2-2-2-----------2------
E-----------3-------3-----------------------------------3---------3-----------



This next section just repeats over and over in a similar style
until the end of the song.


E-------------------------3-3-------------------------------------------2-2----------
B----------------0--------0-0-------------0--------1-1-1-1-1-1-1--------3-3--------1-
G--0-----0-0----0-0---0---0-0-0-0-0-0---0-0--------0-0-0-0-0-0-0--------2-2-2-2----2-
D--0----0----0-0--0---0---0-0---0-0-0---0------0---2-2-2-2-2-2-2-2-3---0---0---0-0---
A--3/5-5----5-5---5\3-1h2------------0h2---2p0--0-3---------3-------3-3------3----3--
E------------------------3--------------------3-------0------------------------------


E--------3-3--3-3-3-3-3---------------------------3-3----------0----0-0------------
B--------0-0--0-0-0-0-0------3--3--3--3-3---------0-0-0-0-1/3--3-1--1-1-1--1-1-1-1-
G------0-0-0--0-0-0-0-0----0---0--0--0---0-4\2---0--------2/4-4--2p0----0h2--0-0-0-
D----0-0-0-0-0------0-0-0h2-5-5--5--5---------0-0--------0-------------------2-2-2-
A--3-1-2-----2--------------------------------------------------------------3------
E-------3----------3---------------------------------------------------------------


E-----------2-2------------------------3-----3-3------------------------------3-3------
B----1-1--0-3-3-3--3-3\1-1-1h3p1-1/3-0-0-0-0-0-0-0-0----3--3--3--3-3----------0-0----0-
G----0-0-0--2-2--2-2-----2-2-----2/4-0---0-0-0-0-0-0------0--0--0-----4\2---0-0-0----0-
D--2-2-2-0--0----0--------------------0-3-2-0----0-0-3/5-5--5--5----0-0--0-0--0-0-0-0--
A-----------------------------------------------2--------------------------------------
E--------------------------------------------------------------------------------------


E------0-0----0-0----------------1-2-0-2---2-2---------------3-3--------------------|
B--1/3-3-3-1--1-1-1--1---1-1-1-1-1-3-3-3-3-3--3\1-1h3p1-1/3--0-0---------------0-0--|
G--2/4-----2p0----0h2--0-0-0-0-0-2-2-----2-------2------2/4-0-----0-0----0-0---0-0--|
D---------------------2--2-2-2-2-0-0----0-----0-----------------0-0-0-0--0-0-0-0-0--|
A---------------------3-----3--3---------------------------------3----1h2-----------|
E-----------------------------------------------------------------------------------|





Blake Norman Tabs & Chords



Blake Norman Tabs, Tablatures, Chords, Lyrics

Buy Blake Norman CD
Blake Norman
Buy Blake Norman CD

  1. Blake Norman - Church Street Blues Chords
  2. Blake Norman - Grandpa's Barn Chords
  3. Blake Norman - Green Light On The Southern Chords
  4. Blake Norman - Hand Me Down My Walking Cane Chords
  5. Blake Norman - Man Of Constant Sorrow (instrumental) Tabs
  6. Blake Norman - Northern Wind Tabs
  7. Blake Norman - The Constitution March Tabs
  8. Blake Norman - The Slopes of Beech Mountain Chords
  9. Blake Norman - You Are My Sunshine Chords



cowboylyrics.com
All lyrics are property and copyright of their owners. All lyrics provided for educational purposes only.