Norman Blake, You Are My Sunshine Tabs, Chords, Lyrics

Norman Blake, You Are My Sunshine Tabs, Chords

 SITE MENU
 Request Tabs
 Add/Correct Tabs
 DMCA Policy
 Country Sheet Music
0

BROWSE LYRICS AND TABS BY ARTIST/BAND NAME: SEARCH HERE:
A B C D E F G H I J K L M N O P Q R S T U V W X Y Z #
 

Norman Blake - You Are My Sunshine (Chords)


Norman Blake CD
Norman Blake Sheet music
Norman Blake Posters

YOU ARE MY SUNSHINE (J. Davis / C. Mitchell)
performed by Norman Blake
O BROTHER, WHERE ART THOU soundtrack (2000)

KEY of F#: tune guitar down to Eb, play in G

          G                            G7
The other night dear as I laid sleeping
            C              G
I dreamed I held you in my arms
           C                  G
But when I woke dear I was mistaken
       G      D          G
And I hung my head and I cried


           G                        G7
You are my sunshine, my only sunshine
             C                   G
You make me happy when skies are gray
             C                      G
You'll never know dear, how much I love you
             G         D       G
Please don't take my sunshine away


I'll always love you and make you happy
If you will only say the same
But if you leave me and love another
You'll regret it all some day

(chorus)

You told me once dear you really loved me
And no one could come between
But now you've left me to love another
You have shattered all of my dreams

(chorus)

In all my dreams you seem to leave me
When I awake my poor heart pains
So won't you come back and make me happy
I'll forgive dear I'll take all the blame

(chorus)


YOU ARE MY SUNSHINE CHORD CHART
|G |G |G |G7 |C |C |G |G |C |C |G |G |G |D |G |G |


GUITAR TAB
INTRO
               _    _   _            _   _                         
  |   |   |   | |  | | | | |   |    | | | | |   |    |   |   |   |  
|----------------|----------------|----------------|----------------|
|----------------|-0-----0--------|-------------0--|----------------|
|---------0---2-3|---2-3----------|-2-0---2--------|-0--------------|
|-----0----------|----------------|----------------|---------0------|
|----------------|----------------|----------------|----------------|
|----------------|----------------|----------------|----------------|
|----------------|----------------|----------------|----------------|


  |
|----------------|----------------|----------------|----------------|
|----------------|----------------|----------------|----------------|
|-0--------------|----------------|----------------|----------------|
|----------------|----------------|----------------|----------------|
|----------------|----------------|----------------|----------------|
|----------------|----------------|----------------|----------------|


CODA
               _    _   _   _        _   _   _            _   _
  |   |   |   | |  | | | | | | |    | | | | | | |    |   | | | | |  
|----------------|----------------|----------------|----------------|
|----------------|-0-----0-----0--|-------------0--|----------------|
|---------0---2-3|---2-3-----3----|-2-0---2---3----|-0--------------|
|-----0----------|----------------|----------------|-----2-0--------|
|----------------|----------------|----------------|---------2-2-0--|
|----------------|----------------|----------------|----------------|



  |   |   |   |
|---------3------|----------------|----------------|----------------|
|---------0------|----------------|----------------|----------------|
|---------0------|----------------|----------------|----------------|
|-----0----------|----------------|----------------|----------------|
|----------------|----------------|----------------|----------------|
|-3--------------|----------------|----------------|----------------|


Blake Norman Tabs & Chords



Blake Norman Tabs, Tablatures, Chords, Lyrics

Buy Blake Norman CD
Blake Norman
Buy Blake Norman CD

  1. Blake Norman - Church Street Blues Chords
  2. Blake Norman - Grandpa's Barn Chords
  3. Blake Norman - Green Light On The Southern Chords
  4. Blake Norman - Hand Me Down My Walking Cane Chords
  5. Blake Norman - Man Of Constant Sorrow (instrumental) Tabs
  6. Blake Norman - Northern Wind Tabs
  7. Blake Norman - The Constitution March Tabs
  8. Blake Norman - The Slopes of Beech Mountain Chords
  9. Blake Norman - You Are My Sunshine Chords



cowboylyrics.com
All lyrics are property and copyright of their owners. All lyrics provided for educational purposes only.