Cast Iron Filter, Hello, Rebekah Tabs, Chords, Lyrics

Cast Iron Filter, Hello, Rebekah Tabs, Chords

 SITE MENU
 Request Tabs
 Add/Correct Tabs
 DMCA Policy
 Country Sheet Music
0

BROWSE LYRICS AND TABS BY ARTIST/BAND NAME: SEARCH HERE:
A B C D E F G H I J K L M N O P Q R S T U V W X Y Z #
 

Cast Iron Filter - Hello, Rebekah (Chords)


Cast Iron Filter CD
Cast Iron Filter Sheet music
Cast Iron Filter Posters
Band:  Cast Iron Filter


Capo On 3


Main Riff (Played and repeated throughout the Intro and Verse)

Dsus2                             G / Dsus2                          Asus4
-----0--------------0----------------0----------------------------------0--------------
-------3----3----------3---3-------------3--------3-----------------------3--------3---
---2-----2-------2------2------2------------2----------------------------------2-------
-0-------------0---------------------------------------------------2-------------------
----------------------------------------------------------------0----------------------
-----------------------------3---------------------------------------------------------

Dsus2                                      Gsus2        Asus4
Hello, Rebekah how you doing? Yeah, you're always on my mind
Dsus2                                              Gsus2           Asus4
You see the things that no one mentions. Yeah, you read between my lines
Dsus2                                       Gsus2               Asus4
Your memories are strong and vivid and your songs don't need to rhyme
Dsus2                       Gsus2       Asus4
Just like a queen without a crown
Dsus2                             Gsus2               Asus4
Ten minutes till midnight and I'm wondering where you are
Dsus2                Gsus2           Asus4
Maybe out on Highway 85 driving your car
Dsus2                            Gsus2                    Asus4
You might be in Tuscaloosa but I don't think you got that far
Dsus2                           Gsus2      Asus4
Maybe I should just buy another round

Chorus Riff:

Bm                 A               G            
------2----------------------0-------------------3---------2-----0-------------0h2-----
-----------3-------3-----------2----2--------3--------3---------3--------3-------------
--------------2-------------------2----------------------------------------------------
----4--------------------2-------------------------------------------------------------
--2------------------0-------------------2---------------------------------------------
--------------------------------------3------------3---------3-------3-----------------

Bm                            A                              Dsus2
-----------2-------------------------0-------------------------------------------
---------------3-------3----------------2------2---------------------------------
-------------------2------------------------2-----------  Continue with main riff
-------4-------------------------2-----------------------------------------------
0h2--------------------------0---------------------------------------------------
---------------------------------------------------------------------------------


Bm            A                G
And sometimes I dont know what to do
Bmin                        A          Dsus2 -->continue with main riff
Cause your breaking me and Im breaking you

Wake up on a Monday morning with a ringing in my head
Empty beer cans on the floor and a half pack of cigarettes
It's just another night alone I'm sleeping solo in my bed
I'm so tired of just fading down

Maybe we should pack our bags and move to San Jose
It's a little brighter there, cause round here it's always grey
It seems like such a friendly place, it'd only take a couple days
Baby, I gotta get outta this town

That plane to San Jose just flew
Cause you're breaking me and I'm breaking you

Can't seem to find you're touch and it's too late I fear
I can't seem to see myself when I'm looking in the mirror
I can't seem to hear your voice when you whisper in my ear
Sometimes I can't even hear a sound

Turn the corner on Bardstown Road and put my sunglasses on
I'm trying hard to make it home so I can pass out on the lawn
And all I can think of is that Cars song "Since You're Gone"
Thank the Lord I'm homeward bound

Sometimes I'm tangled up in blue
Cause you're breaking me and I'm breaking you
I love every single thing you do
Cause you're breaking me and I'm breaking you.





 


Cast Iron Filter Tabs & Chords



Cast Iron Filter Tabs, Tablatures, Chords, Lyrics

Buy Cast Iron Filter CD
Cast Iron Filter
Buy Cast Iron Filter CD

  1. Cast Iron Filter - 27 Dollars And A Wedding Ring Chords
  2. Cast Iron Filter - A Cowboy Song Chords
  3. Cast Iron Filter - Ain't So Great Chords
  4. Cast Iron Filter - Americana Motel Chords
  5. Cast Iron Filter - Brand New Pants Chords
  6. Cast Iron Filter - Esmerelda Chords
  7. Cast Iron Filter - Falls Of Rough Chords
  8. Cast Iron Filter - Gas Station Queen Chords
  9. Cast Iron Filter - Hard Luck Man Chords
  10. Cast Iron Filter - Harlan County, Usa Chords
  11. Cast Iron Filter - Hello, Rebekah Chords
  12. Cast Iron Filter - Highway 85 Chords
  13. Cast Iron Filter - Kamikaze Man Chords
  14. Cast Iron Filter - Nowhere To Be Chords
  15. Cast Iron Filter - Paradise In Palestine Tabs
  16. Cast Iron Filter - Paradise In Palestine/Catherine's Song Chords
  17. Cast Iron Filter - Running Free Chords
  18. Cast Iron Filter - Saving The Best For Last Chords
  19. Cast Iron Filter - Soky Fair Tabs
  20. Cast Iron Filter - Take Me Home Chords
  21. Cast Iron Filter - Temptress Of Washington Chords
  22. Cast Iron Filter - The Runaway Song Chords
  23. Cast Iron Filter - Unleaded Chords
  24. Cast Iron Filter - Walk Home Alone 1 Chords
  25. Cast Iron Filter - When You Don't Come Aroun Chords
  26. Cast Iron Filter - Who Are We To Question Love Chords



cowboylyrics.com
All lyrics are property and copyright of their owners. All lyrics provided for educational purposes only.