Cast Iron Filter, Paradise In Palestine Tabs, Chords, Lyrics

Cast Iron Filter, Paradise In Palestine Tabs, Chords

 SITE MENU
 Request Tabs
 Add/Correct Tabs
 DMCA Policy
 Country Sheet Music
0

BROWSE LYRICS AND TABS BY ARTIST/BAND NAME: SEARCH HERE:
A B C D E F G H I J K L M N O P Q R S T U V W X Y Z #
 

Cast Iron Filter - Paradise In Palestine (Tabs)


Cast Iron Filter CD
Cast Iron Filter Sheet music
Cast Iron Filter Posters
Cast Iron Filter
Paradise In Palestine (Lead)
"Paradise in Palestine"


Ok this is played as a fill between the G and Cadd9 during the chorus. 
If you use your pointer and pinky finger to 
play the fill notes while hitting the (3) with  
your ring finger you can keep your other fingers in the 
same chord postions. Just a lil hint.  
The notes in (  ) do not have to be played, but may be added for emphasis.

------------------------------------3---------------------
---(3)---(3)---(3)---(3)---(3)-------3--------------------
----0-----2-----4-----2-----0--------0--strum / pick------
----0-----0-----0-----0-----0--------0--------------------
-------------------------------------2--------------------
----------------------------------3--3--------------------


------------------------------------------0--------------
---(3)-- (3)----(3)---(3)-----(3)---------3--------------
----0---- 2------4-----2-------0----------0-strum/ pick--
----0---- 0------0-----0-------0----------2--------------
--------------------------------------3---3--------------
---------------------------------------------------------


Cast Iron Filter Tabs & Chords



Cast Iron Filter Tabs, Tablatures, Chords, Lyrics

Buy Cast Iron Filter CD
Cast Iron Filter
Buy Cast Iron Filter CD

  1. Cast Iron Filter - 27 Dollars And A Wedding Ring Chords
  2. Cast Iron Filter - A Cowboy Song Chords
  3. Cast Iron Filter - Ain't So Great Chords
  4. Cast Iron Filter - Americana Motel Chords
  5. Cast Iron Filter - Brand New Pants Chords
  6. Cast Iron Filter - Esmerelda Chords
  7. Cast Iron Filter - Falls Of Rough Chords
  8. Cast Iron Filter - Gas Station Queen Chords
  9. Cast Iron Filter - Hard Luck Man Chords
  10. Cast Iron Filter - Harlan County, Usa Chords
  11. Cast Iron Filter - Hello, Rebekah Chords
  12. Cast Iron Filter - Highway 85 Chords
  13. Cast Iron Filter - Kamikaze Man Chords
  14. Cast Iron Filter - Nowhere To Be Chords
  15. Cast Iron Filter - Paradise In Palestine Tabs
  16. Cast Iron Filter - Paradise In Palestine/Catherine's Song Chords
  17. Cast Iron Filter - Running Free Chords
  18. Cast Iron Filter - Saving The Best For Last Chords
  19. Cast Iron Filter - Soky Fair Tabs
  20. Cast Iron Filter - Take Me Home Chords
  21. Cast Iron Filter - Temptress Of Washington Chords
  22. Cast Iron Filter - The Runaway Song Chords
  23. Cast Iron Filter - Unleaded Chords
  24. Cast Iron Filter - Walk Home Alone 1 Chords
  25. Cast Iron Filter - When You Don't Come Aroun Chords
  26. Cast Iron Filter - Who Are We To Question Love Chords



cowboylyrics.com
All lyrics are property and copyright of their owners. All lyrics provided for educational purposes only.