Raye Collin, Couldn't Last a Moment Tabs, Chords, Lyrics

Raye Collin, Couldn't Last a Moment Tabs, Chords

 SITE MENU
 Request Tabs
 Add/Correct Tabs
 DMCA Policy
 Country Sheet Music
0

BROWSE LYRICS AND TABS BY ARTIST/BAND NAME: SEARCH HERE:
A B C D E F G H I J K L M N O P Q R S T U V W X Y Z #
 

Raye Collin - Couldn't Last a Moment (Chords)


Raye Collin CD
Raye Collin Sheet music
Raye Collin Posters
Chords to Know: 
    E  C#m  Asus2  B  E/A  F#m  F#m11  E/G#  Am7  Cdim7 D#dim7 Em  C  G    
F#m7/B 
E---0---4-----0----2---0----2------0-----0----0------------2----0--0---------2---- 
B---0---5-----0----4---0----2------0-----5----1-----4------1----0--1---------2---- 
G---1---6-----2----4---1----2------2-----4----0-----2------2----0--0---4-----2---- 
D---2---6-----2----4---2----4------2-----2----2-----4------1----2--2---5-----2---- 
A---2---4-----0----2---0----4------0-----0----0-----3-----------2--3---5-----2---- 
E---0-----------------------2------2-----4----------------------0------3---------- 
 
 
 
Riff (Intro Riff and Verse Riff):                            
  Acoustic Strums 
  Electric Plays Tab 
 
  (Cdim7)   (C#m)  (C#m)        (Asus2)                   (E)  
E----------------------------------------------------------0---------------------- 
B---4----4----5------5-------3-----------------------------0---------------------- 
G---2----2----6------6-------6-----2------2--------2-------1---------------------- 
D---4----4----6------6-------6-----2------2--------2-------2------------2--------- 
A---3----3----4------4----4--------0------0----0-----------2------------2--------- 
E----------------------------------------------------------0----0----0-----0---0-- 
 
 
 
(Play Riff Twice) 
I thought it was over 
I thought I could move on 
But I was wrong 
I woke up last night 
calling your name 
And feeling the blame, baby 
 
F#m 
Thought I could quit you 
    E/G# 
But I still miss your love 
  Asus2 
What was I thinking....thinking 
 
                            E 
I could still walk down the street 
                    F#m11 
Without you by my side 
                      E/A             B 
Or make it through one night alone, I tried 
                E                       F#m11 
I said a lot of things I didn't really mean 
                    C#m                     B     
How can I make you see what matters most to me 
                 F#m 
Girl, I should have known it 
                  Am7                 E 
I couldn't last a moment it...without you 
 
Play Riff in between Chorus and Verse 2 
 
(Play the same riff under verse 2) 
Here it is: 
 
  (Cdim7)   (C#m)  (C#m)        (Asus2)                   (E)  
E----------------------------------------------------------0---------------------- 
B---4----4----5------5-------3-----------------------------0---------------------- 
G---2----2----6------6-------6-----2------2--------2-------1---------------------- 
D---4----4----6------6-------6-----2------2--------2-------2------------2--------- 
A---3----3----4------4----4--------0------0----0-----------2------------2--------- 
E----------------------------------------------------------0----0----0-----0---0-- 
 
You've got every right 
To turn around and walk away 
I can't make you stay 
I broke you heart 
Thats the bottom line 
I wasted so much precious time, baby 
 
F#m 
I see you with your friends 
  E/G# 
Wearing a smile again 
  Asus2 
What was I thinking....thinking 
 
                            E 
I could still walk down the street 
                    F#m11 
Without you by my side 
                      E/A             B 
Or make it through one night alone, I tried 
                E                       F#m11 
I said a lot of things I didn't really mean 
                    C#m                     B     
How can I make you see what matters most to me 
                 F#m 
Girl, I should have known it 
                  Am7                 E 
I couldn't last a moment it...without you 
 
 
Instrumental  
Think of the timing like this: 
 
  "boom-boom"    boom   
 
   (D#dim7)        Em (4 beats)     C (4 beats)       G (4 beats)     
E---2----2---------0----- 
B---1----1---------0----- 
G---2----2---------0----- 
D---1----1---------2----- 
A------------------2----- 
E------------------0----- 
 
 
  (D#dim7)        Em  (4 beats)     C  (4beats)        F#m  (4 beats)  F#m7/B  
                   
E---2----2---------0----- 
B---1----1---------0----- 
G---2----2---------0----- 
D---1----1---------2----- 
A------------------2----- 
E------------------0----- 
 
 
 
 
F#m 
Thought I could quit you 
   E/G# 
But I still miss your love 
  Asus2 
What was I thinking....thinking 
 
                            E 
I could still walk down the street 
                    F#m11 
Without you by my side 
                      E/A             B 
Or make it through one night alone, I tried 
                E                       F#m11 
I said a lot of things I didn't really mean 
                    C#m                     B     
How can I make you see what matters most to me 
                 F#m 
Girl, I should have known it 
                  Am7                 E          C#m 
I couldn't last a moment it...without you 
 
                 F#m 
Girl, I should have known it 
                  Am7                  E 
I couldn't last a moment it...without you 
 
Outro: 
 
Play the main riff again, end on E chord 
 
  (Cdim7)   (C#m)  (C#m)        (Asus2)                   (E)  
E----------------------------------------------------------0---------------------- 
B---4----4----5------5-------3-----------------------------0---------------------- 
G---2----2----6------6-------6-----2------2--------2-------1---------------------- 
D---4----4----6------6-------6-----2------2--------2-------2------------2--------- 
A---3----3----4------4----4--------0------0----0-----------2------------2--------- 
E----------------------------------------------------------0----0----0-----0---0-- 


 


Collin Raye Tabs & ChordsCollin Raye Lyrics



Collin Raye Tabs, Tablatures, Chords, Lyrics

Buy Collin Raye CD
Collin Raye
Buy Collin Raye CD

  1. Collin Raye - All My Roads Chords
  2. Collin Raye - Angel Of No Mercy Chords
  3. Collin Raye - Anyone Else Chords
  4. Collin Raye - Couldn't Last a Moment Chords
  5. Collin Raye - Every Second Chords
  6. Collin Raye - Faithfully Chords
  7. Collin Raye - Gypsy Honeymoon Chords
  8. Collin Raye - Heart Full of Rain Chords
  9. Collin Raye - I Can Still Feel You Chords
  10. Collin Raye - I Love Being Wrong Chords
  11. Collin Raye - I Think About You Chords
  12. Collin Raye - I Want You Bad (And That Ain't Good) Chords
  13. Collin Raye - I Want You Bad (and That Ain't Good) Chords
  14. Collin Raye - I Wish I Could Chords
  15. Collin Raye - In This Life Chords
  16. Collin Raye - It Could Happen Again Chords
  17. Collin Raye - It's Only Make Believe Chords
  18. Collin Raye - Latter Day Cowboy Chords
  19. Collin Raye - Little Red Rodeo Chords
  20. Collin Raye - Love Me Chords
  21. Collin Raye - Love Remains Chords
  22. Collin Raye - Love, Me - Fingerstyle Tabs
  23. Collin Raye - Man Of My Word Chords
  24. Collin Raye - Man Of My Word 2 Chords
  25. Collin Raye - Many A Mile Chords
  26. Collin Raye - My Kind Of Girl Chords
  27. Collin Raye - Not That Different Chords
  28. Collin Raye - Nothin' Just A Little Love Won't Cure Chords
  29. Collin Raye - On the Verge Chords
  30. Collin Raye - One Boy One Girl Chords
  31. Collin Raye - Somebody Else's Moon Chords
  32. Collin Raye - Someone You Used To Know Chords
  33. Collin Raye - Sweet Miss Behavin' Chords
  34. Collin Raye - That Was A River Chords
  35. Collin Raye - That's My Story Chords
  36. Collin Raye - The Search Is Over Chords
  37. Collin Raye - The Time Machine Chords
  38. Collin Raye - To The Border And Beyond Chords
  39. Collin Raye - Want You Bad Chords
  40. Collin Raye - What If Jesus Came Back Like That Chords
  41. Collin Raye - What If Jesus Comes Back Like That Chords
  42. Collin Raye - What The Heart Wants Chords
  43. Collin Raye - What They Don't Know Chords
  44. Collin Raye - When You Wish Upon A Star Chords
  45. Collin Raye - You Can't Take It With You Chords
  46. Collin Raye - You Get Me Chords
  47. Collin Raye - You Still Take Me There Chords
  48. Collin Raye - You're Not Drinkin' Enough Chords



cowboylyrics.com
All lyrics are property and copyright of their owners. All lyrics provided for educational purposes only.