Raye Collin, Love, Me - Fingerstyle Tabs, Chords, Lyrics

Raye Collin, Love, Me - Fingerstyle Tabs, Chords

 SITE MENU
 Request Tabs
 Add/Correct Tabs
 DMCA Policy
 Country Sheet Music
0

BROWSE LYRICS AND TABS BY ARTIST/BAND NAME: SEARCH HERE:
A B C D E F G H I J K L M N O P Q R S T U V W X Y Z #
 

Raye Collin - Love, Me - Fingerstyle (Tabs)


Raye Collin CD
Raye Collin Sheet music
Raye Collin Posters
Love, Me
By Skip Ewing and Max T Barnes
          
C     x32010 
G/E   x20003   
Am    x02210   
C/G   332010
Dm    xx0231 
G     320003  
F/C   x3x211   
F     133211
Dm7   xx0211 
Gsus4 32001x   
C/F   135010      
E/G#  002100
E     022100

Gtr I - Fingerstyle Acoustic
Standard Tuning

 Intro
  Slowly Q=54
  C       G/B       Am      C/G         Dm        G        C   F/C
 4/4
  Gtr I
  S S S S +Q        S S S S +Q           S  S S S E    S S S S E Q
|-0-----------------------------------|--1--0------------------1-0---|
|---3-1-3-(3)-------1-0-1-1-(1)-------|-------3-1-0----1-1-----------|
|---------------0---2-------------0---|--2--0----------------0-2-0---|
|-------------0---0-------------2---0-|-(0)---3-2-0-0----------------|
|-3--------2--------0-----------------|--------------------3---------|
|----------------------------3--------|-----------3------------------|
  Q        S  S S S Q        S  S S S   +E    E   S E.     H


   Verse
    $
    C       G/B     Am                F       G       C
    S S S S S S S S S S S S S S S S   S S S S S S S S S S S S a S S S S
||------0---------------------------|-----------------------3-----------|
||o-------1-------3-------1---------|-------1-------0-----1---------1---|
||----0---------0-------2-------2---|-----2-------0-----0---------0---0-|
||------------0-------2-------2---2-|---3-------0-------------0h2-------|
||o-3-------2-------0-------0-------|-----------------3-----------------|
||----------------------------------|-1-------3-------------------------|


          G/B     Am                Dm7             Gsus4   G
  S S S S S S S S S S S S S S S S   S S S S S S S S S S S S S S S S
|-------0-------------------------|-------1-------------------------|
|-----1---------3-------1---------|-----1-------1---1-----1-0-------|
|---0---------0-------2-------2---|---2-------2---0-----0-------0---|
|-----------0-------2-------2---2-|-0-------0---------0-------0---0-|
|-3-------2-------0-------0-------|---------------------------------|
|---------------------------------|-----------------3-------3-------|


  C       G/B     Am                F       G       C
  S S S S S S S S S S S S S S S S   S S S S S S S S S S S S a S S S S
|-------0-------------------------|-----------------------3------------|
|-----1---------3-------1---------|-------1-------0-----1---------1----|
|---0---------0-------2-------2---|-----2-------0-----0---------0---0--|
|-----------0-------2-------2---2-|---3-------0-------------0h2--------|
|-3-------2-------0-------0-------|-----------------3------------------|
|---------------------------------|-1-------3--------------------------|


                                    1.
  C       G/B     Am      F         Gsus4   G/B   C     F/C
  S S S S S S S S S S S S S S S S   S S S S S S S S S S E Q
|-------0-------------------------|-----3---------------1-0---||
|-----1---------3-------1-------1-|---------3----------------o||
|---0---------0-------2-------2---|---------------0---0-2-0---||
|-----------0-------2-------3-----|---0---0-----0-------------||
|-3-------2-------0---------------|-----------2-----3--------o||
|-------------------------1-------|-3-------------------------||


                             Chorus
  2.,D.S.
  G         G/B   C   F/C     F       G       C
  S S S S S S S S S S E Q     S S S S S S S S S S S S +S  S E
|---------------------1-0--||---------------3-------0-(0)---3-|
|---------3----------------||-------1-------------1-------1---|
|-----0---------0---0-2-0--||-----2-------0-----0-------------|
|---0---0-----0------------||---3-------0---------------------|
|-----------2-----3--------||-----------------3---------------|
|-3------------------------||-1-------3-----------------------|


  F       G       C                   F       G       Am
  S S S S S S S S S S S S +S  S S S   S S S S S S S S S S S S +S  S E
|---------------3-------0-(0)-------|---------------------------------|
|-------1-------------1-------1-----|-------1-------0-------1-(1)-----|
|-----2-------0-----0-----------0---|-----2-------0-------2-------2-0-|
|---3-------0---------------------2-|---3-------0-------2-------------|
|-----------------3-----------------|-----------------0---------------|
|-1-------3-------------------------|-1-------3-----------------------|


  Dm7C/FGsus4       G       F       G       C
  Q  Q  S S S S +S  S S S   S S S S S S S S S S S S +S  S E
|-------------------------|-----------------------3-(3)---3-|
|-------------1-(1)-0-----|---------------0-----1-------1---|
|-2---------0---------0---|-------2-----0-----0-------------|
|-0--5----0-------------0-|-----3-----0---------------------|
|----3--------------------|---3-------------3---------------|
|-------3-----------------|-1-------3-----------------------|


  F       G       Am                  F     G         E/G#  Am
  S S S S S S S S S S S S +S  S S S   S S S S S S S S S S S S S S S S
|-----------------------------------|---------------------0-----------|
|-------1-------0-------1-(1)-------|-----1-------0---------------1---|
|-----2-------0-------2-------2-0---|---2-------0-------1-------2-----|
|---3-------0-------2-------------2-|-3-------0-----0-2-------2-----2-|
|-----------------0-----------------|-----------------------0---------|
|-1-------3-------------------------|-------3-------------------------|


                 To Coda
  F               G       C       G/B       Am      C/G
  S S S S +S  S E  H      S S S S +Q        S S S S +Q
|-----------------^3----|-0-----------------------------------|
|-------1-(1)-----^0----|---3-1-3-(3)-------1-0-1-1-(1)-------|
|-----2---------2-^0----|---------------0---2-------------0---|
|---3---------3---^0----|-------------0---0-------------2---0-|
|-----------------^2----|-3--------2--------0-----------------|
|-1---------------^3----|----------------------------3--------|
                          Q        S  S S S Q        S  S S S


               D.S. al Coda      &
  Dm        G        C           C
   S  S S S E    S S S S E Q     S S S S +S  S E S S S S +E  E
|--1--0------------------1-0--||-------3-(3)-----------3-(3)----|
|-------3-1-0----1-1----------||-----1-------1-1----------------|
|--2--0----------------0-2-0--||---------------------0-------0--|
|-(0)---3-2-0-0---------------||---2---------------2------------|
|--------------------3--------||-3---------------3--------------|
|-----------3-----------------||-----------------0--------------|
  +E    E   S E.     H


  F     G         E     Am          F               G
                                                           2/4
  S S S S S S S S S S S S S S S S   S S S S +S  S E  H      +H
|---------------------0-----------|-----------------^3----|-(3)----|
|-----1-------0---------------1---|-------1-(1)-----^0----|-(0)----|
|---2-------0-------1-------2-----|-----2---------2-^0----|-(0)----|
|-3-------0-----0-2-------2-----2-|---3---------3---^0----|-(0)----|
|-----------------------0---------|-----------------^2----|-(2)----|
|-------3-------------------------|-1---------------^3----|-(3)----|


 Outro
  C       G/B       Am      C/G         Dm        G        C     F/C
 4/4
  S S S S +Q        S S S S +Q           S  S S S E    S S +S  S E  Q
|-0-----------------------------------|--1--0------------------0-1-^0---*|
|---3-1-3-(3)-------1-0-1-1-(1)-------|-------3-1-0----1-1-(1)-----^1---*|
|---------------0---2-------------0---|--2--0------------------0-2-^0---*|
|-------------0---0-------------2---0-|-(0)---3-2-0-0-------------------*|
|-3--------2--------0-----------------|---------------------3------^3---*|
|----------------------------3--------|-----------3---------------------*|
  Q        S  S S S Q        S  S S S   +E    E   S E.      H


Duration Legend
---------------
W - whole; H - half; Q - quarter; E - 8th; S -


Collin Raye Tabs & ChordsCollin Raye Lyrics



Collin Raye Tabs, Tablatures, Chords, Lyrics

Buy Collin Raye CD
Collin Raye
Buy Collin Raye CD

  1. Collin Raye - All My Roads Chords
  2. Collin Raye - Angel Of No Mercy Chords
  3. Collin Raye - Anyone Else Chords
  4. Collin Raye - Couldn't Last a Moment Chords
  5. Collin Raye - Every Second Chords
  6. Collin Raye - Faithfully Chords
  7. Collin Raye - Gypsy Honeymoon Chords
  8. Collin Raye - Heart Full of Rain Chords
  9. Collin Raye - I Can Still Feel You Chords
  10. Collin Raye - I Love Being Wrong Chords
  11. Collin Raye - I Think About You Chords
  12. Collin Raye - I Want You Bad (And That Ain't Good) Chords
  13. Collin Raye - I Want You Bad (and That Ain't Good) Chords
  14. Collin Raye - I Wish I Could Chords
  15. Collin Raye - In This Life Chords
  16. Collin Raye - It Could Happen Again Chords
  17. Collin Raye - It's Only Make Believe Chords
  18. Collin Raye - Latter Day Cowboy Chords
  19. Collin Raye - Little Red Rodeo Chords
  20. Collin Raye - Love Me Chords
  21. Collin Raye - Love Remains Chords
  22. Collin Raye - Love, Me - Fingerstyle Tabs
  23. Collin Raye - Man Of My Word Chords
  24. Collin Raye - Man Of My Word 2 Chords
  25. Collin Raye - Many A Mile Chords
  26. Collin Raye - My Kind Of Girl Chords
  27. Collin Raye - Not That Different Chords
  28. Collin Raye - Nothin' Just A Little Love Won't Cure Chords
  29. Collin Raye - On the Verge Chords
  30. Collin Raye - One Boy One Girl Chords
  31. Collin Raye - Somebody Else's Moon Chords
  32. Collin Raye - Someone You Used To Know Chords
  33. Collin Raye - Sweet Miss Behavin' Chords
  34. Collin Raye - That Was A River Chords
  35. Collin Raye - That's My Story Chords
  36. Collin Raye - The Search Is Over Chords
  37. Collin Raye - The Time Machine Chords
  38. Collin Raye - To The Border And Beyond Chords
  39. Collin Raye - Want You Bad Chords
  40. Collin Raye - What If Jesus Came Back Like That Chords
  41. Collin Raye - What If Jesus Comes Back Like That Chords
  42. Collin Raye - What The Heart Wants Chords
  43. Collin Raye - What They Don't Know Chords
  44. Collin Raye - When You Wish Upon A Star Chords
  45. Collin Raye - You Can't Take It With You Chords
  46. Collin Raye - You Get Me Chords
  47. Collin Raye - You Still Take Me There Chords
  48. Collin Raye - You're Not Drinkin' Enough Chords



cowboylyrics.com
All lyrics are property and copyright of their owners. All lyrics provided for educational purposes only.