Nickel Creek, When You Come Back Down Tabs, Chords, Lyrics

Nickel Creek, When You Come Back Down Tabs, Chords

 SITE MENU
 Request Tabs
 Add/Correct Tabs
 DMCA Policy
 Country Sheet Music
0

BROWSE LYRICS AND TABS BY ARTIST/BAND NAME: SEARCH HERE:
A B C D E F G H I J K L M N O P Q R S T U V W X Y Z #
 

Nickel Creek - When You Come Back Down (Tabs)


Nickel Creek CD
Nickel Creek Sheet music
Nickel Creek Posters
intro
G:-------- 
D:--------
A:--------
E:---7----

Verse 1
G:---------------------------------------- 2x?s
D:----------------------------------------
A:----------13--13--------13-11-----------
E:---7----11--11---7----11--9---7--7------

chorus
G:------------------------------------------------------
D:------------------------------------------------------
A:--9-9---16--16--9-9---16--16--9-9---16--16--13-11-----
E:-7-7--14--14---7-7--14--14---7-7--14--13--11--9--7----

G:------------------------------------------------
D:------------------------------------------------
A:-----16--16--9-9---13--13--9-9---13-11-9-9-9-9--
E:---14--14---7-7--11--11---7-7--11--9--7-7-7-7---

Verse 2
G:----------------------------------------- 2x?s
D:-----------------------------------------
A:----9-9---13--13--9-9----13-11--9--9-----
E:---7-7--11--11---7-7---11--9---7--7------

chorus
G:------------------------------------------------------
D:------------------------------------------------------
A:--9-9---16--16--9-9---16--16--9-9---16--16--13-11-----
E:-7-7--14--14---7-7--14--14---7-7--14--13--11--9--7----

G:------------------------------------------------
D:------------------------------------------------
A:-----16--16--9-9---13--13--9-9---13-11-9-9-9-9--
E:---14--14---7-7--11--11---7-7--11--9--7-7-7-7---

G:------------------------------------------------
D:------------------------------------------------
A:-----13--13--13--13---------------16------------
E:---11--11--11--11--11---13--14------------7-----

Last chorus
G:------------------------------------------------------
D:------------------------------------------------------
A:----16--16--9-9---16--16--9-9---16--16--13-11---------
E:--14--14---7-7--14--14---7-7--14--13--11--9--7--7-----

G:--------------------------------
D:--------------------------------
A:--9-9---16--16--13-11-------9---
E:-7-7--14--13--11--9--7--7-------


Creek Nickel Tabs & ChordsCreek Nickel Lyrics



Creek Nickel Tabs, Tablatures, Chords, Lyrics

Buy Creek Nickel CD
Creek Nickel
Buy Creek Nickel CD

  1. Creek Nickel - 7 Wonders Tabs
  2. Creek Nickel - Anthony Tabs
  3. Creek Nickel - Beauty & The Mess Chords
  4. Creek Nickel - Beauty And The Mess (mando) Tabs
  5. Creek Nickel - Beauty And The Mess (walkdown And Solo) Tabs
  6. Creek Nickel - Brand New Sidewalk Tabs
  7. Creek Nickel - Crooked Jack Chords
  8. Creek Nickel - Doubtin Thomas (mando) Tabs
  9. Creek Nickel - Doubting Thomas (mando-alternative) Tabs
  10. Creek Nickel - Face Of Trouble Chords
  11. Creek Nickel - Found Soul Chords
  12. Creek Nickel - Green & Gray Chords
  13. Creek Nickel - Green And Gray Tabs
  14. Creek Nickel - Green And Grey (capo 2) Chords
  15. Creek Nickel - Hanging By A Thread Chords
  16. Creek Nickel - Hanging By A Thread ( Intro) Tabs
  17. Creek Nickel - He Will Listen To You Chords
  18. Creek Nickel - Helena Chords
  19. Creek Nickel - Helena V.2 Chords
  20. Creek Nickel - House Carpenter Chords
  21. Creek Nickel - House Carpenter (mandolin Part) Tabs
  22. Creek Nickel - House Of Tom Bombadil Tabs
  23. Creek Nickel - House Of Tom Bombadil (full Mandolin) Tabs
  24. Creek Nickel - I Should've Known Better Chords
  25. Creek Nickel - Jealous Of The Moon Chords
  26. Creek Nickel - Leaves Fall (thile, Mandolin) Tabs
  27. Creek Nickel - Light House Tale Tabs
  28. Creek Nickel - Lighthouse Tale Tabs
  29. Creek Nickel - Melvin Is Locking Doors Chords
  30. Creek Nickel - Ode To A Butterfly Tabs
  31. Creek Nickel - Ode To A Butterfly ( Banjo) Tabs
  32. Creek Nickel - Out Of The Woods Chords
  33. Creek Nickel - Pastures New Tabs
  34. Creek Nickel - Reasons Why (solo) Tabs
  35. Creek Nickel - Reasons Why 1 Tabs
  36. Creek Nickel - Robin And Marian (first Half For Mandolin) Chords
  37. Creek Nickel - Sabra Girl Chords
  38. Creek Nickel - Scotch & Chocolate Tabs
  39. Creek Nickel - Scotch And Chocalate (guitar Intro) Tabs
  40. Creek Nickel - Scotch And Chocolate (mandolin) Tabs
  41. Creek Nickel - Seven Wonders Chords
  42. Creek Nickel - Seven Wonders (accurate) Chords
  43. Creek Nickel - Should've Known Better Tabs
  44. Creek Nickel - Smoothie Song Tabs
  45. Creek Nickel - Smoothie Song Tabs
  46. Creek Nickel - Somebody More Like You Chords
  47. Creek Nickel - Speak Chords
  48. Creek Nickel - Speak (accurate) Tabs
  49. Creek Nickel - Speak Intro Tabs
  50. Creek Nickel - Spit On A Stranger Chords
  51. Creek Nickel - Spit On A Stranger 2 Chords
  52. Creek Nickel - Starfish (mando) Tabs
  53. Creek Nickel - Stumptown (mando) Tabs
  54. Creek Nickel - Stumptown (mandolin) Tabs
  55. Creek Nickel - Sweet Afton Chords
  56. Creek Nickel - The Fox (100% Accurate Mandolin Solo Tab) Tabs
  57. Creek Nickel - The Fox (corrected) Chords
  58. Creek Nickel - The Fox (mandolin) Tabs
  59. Creek Nickel - The Fox - Mandolin Solo Correct Tabs
  60. Creek Nickel - The Hand Song Chords
  61. Creek Nickel - The Lighthouse Tale Chords
  62. Creek Nickel - This Side Chords
  63. Creek Nickel - Tomorrow Is A Long Time Chords
  64. Creek Nickel - Toxic (madolin) Tabs
  65. Creek Nickel - When In Rome Chords
  66. Creek Nickel - When You Come Back Down Tabs
  67. Creek Nickel - When You Come Back Down Tabs
  68. Creek Nickel - Young (accurate) Chords



cowboylyrics.com
All lyrics are property and copyright of their owners. All lyrics provided for educational purposes only.