Nickel Creek, Young (accurate) Tabs, Chords, Lyrics

Nickel Creek, Young (accurate) Tabs, Chords

 SITE MENU
 Request Tabs
 Add/Correct Tabs
 DMCA Policy
 Country Sheet Music
0

BROWSE LYRICS AND TABS BY ARTIST/BAND NAME: SEARCH HERE:
A B C D E F G H I J K L M N O P Q R S T U V W X Y Z #
 

Nickel Creek - Young (accurate) (Chords)


Nickel Creek CD
Nickel Creek Sheet music
Nickel Creek Posters
         "YOUNG"  by Nickel Creek
      


OPEN "G" Tuning     (DGDGBD)

         "YOUNG"  by Nickel Creek
      
    G5  A7sus4  F6sus2  Csus2   Em7  Bb  Fm7  
high-0----0-------0-------0------0----0---1----
    -3----5-------1-------8------0----1---1----
    -0----0-------0-------0------0----0---1----
    -5----7-------3-------10-----2----3---3----
    -0---------------------------0----3--------
low -------------------------------------------  


G/C  Bb6  Cadd9  D7  Eb7  F7
-0----0-----0-----0---8----0----------
 3----3-----5-----7---6----10---------
-4----0-----0-----5---8-----8---------
-5----3-----5-----7---8----10---------
-5----3-----5-----7--------10---------




Intro
G5 slide to A7sus4 back to F6sus2
G5 A7sus4 Csus2
G5 A7sus4 Em7 F6sus2 G5

Verse
Same as above



Chorus
Bb           
 I           know....... that.......  
-0--0--x-x----0------0----0---0-----
-1--1--x-x----1------1----1---1-----
-0--0--x-x----0------0----0---0-----
-3--3--x-x----3------3----3---3-----
-3------------3------3----3---3-----
------------------------------------

 Fm7
 you         dont...............need 
--1--1--x-x---1--1--------------1--1--x--x
--1--1--x-x---1--1--------------1--1--x--x
--1--1--x-x---1--1--------------1--1--x--x
--3--3--x-x---3--3--------------3--3--x--x
--x---------------------------------------
--3---------------------------------------

G/C                                  G5
no             bod                   y.....
-0---0-----------0-----0--------------5----
-3---3-----------3-----3--------------3----
-4---4-----------4-----4--------------0----
-5---5-----------5-----5--------------5----
-5---------------5-----5--------------0----
-------------------------------------------

y..............  Are               you 
-0---0------------0----0------------0----0--
-3---3------------3----3------------3----3--
-0---0------------0----0------------0----0--
-5----------------5-----------------5-------
--------0-------------------0-------0-------
--------------------------------------------

Fm7
 sure          you're............  that  
--1--1-x-x------1---1---------------1--x-1-x-x
--1--1-x-x------1---1---------------1--x-1-x-x
--1--1-x-x------1---1---------------1--x-1-x-x
--3--3-x-x------3---3---------------3--x-3-x-x
--x-------------------------------------------
--3-------------------------------------------

Bb6             Cadd9
sure            a.......bout             me?
-0--0--x--------0--0-----0-------0---------0--
-3--3--x--------5--5-----5-------5---------7--
-0--0--x--------0--0-----0-------0---------5--
-3-----x--------5--5-----5-------5---------7--
-3-----x--------5--5-----5-------5---------7--
----------------------------------------------

D7
-x-x--0--0---0-0------------0---0---0----
-x-x--7--7---7-7--x--x------7---7---7----
-x-x--5--5---5-5--x--x------5---5---5----
-x-x--7--7-----7--x--x--7---7---7---7----
------7--7-----7--------7----------------
-----------------------------------------

Eb7                      F7
------------------------0---0--0---0---0---/-0-
--------8-8---10--10-----10--10-10--10--10-/-0-
-------6-6----8---8-----8---8--8---8----8--/-0-
-------8-8---10--10-----10--10-10--10--10--/-0-
-8--8--8-8----8---8-----10--10-10--10--10--/--
-------------------------------------------/--



Get a feel for the timing and it is an easy song to play.
Havfe fun and I hope this helps some people.
Scott
 


Creek Nickel Tabs & ChordsCreek Nickel Lyrics



Creek Nickel Tabs, Tablatures, Chords, Lyrics

Buy Creek Nickel CD
Creek Nickel
Buy Creek Nickel CD

  1. Creek Nickel - 7 Wonders Tabs
  2. Creek Nickel - Anthony Tabs
  3. Creek Nickel - Beauty & The Mess Chords
  4. Creek Nickel - Beauty And The Mess Tabs
  5. Creek Nickel - Brand New Sidewalk Tabs
  6. Creek Nickel - Crooked Jack Chords
  7. Creek Nickel - Doubting Thomas Tabs
  8. Creek Nickel - Face Of Trouble Chords
  9. Creek Nickel - Found Soul Chords
  10. Creek Nickel - Green & Gray Chords
  11. Creek Nickel - Hanging By A Thread Chords
  12. Creek Nickel - He Will Listen To You Chords
  13. Creek Nickel - Helena Chords
  14. Creek Nickel - House Carpenter Chords
  15. Creek Nickel - House Of Tom Bombadil Tabs
  16. Creek Nickel - I Should've Known Better Chords
  17. Creek Nickel - Jealous Of The Moon Chords
  18. Creek Nickel - Leaves Fall (thile, Mandolin) Tabs
  19. Creek Nickel - Lighthouse Tale Tabs
  20. Creek Nickel - Melvin Is Locking Doors Chords
  21. Creek Nickel - Ode To A Butterfly Tabs
  22. Creek Nickel - Out Of The Woods Chords
  23. Creek Nickel - Pastures New Tabs
  24. Creek Nickel - Reasons Why Tabs
  25. Creek Nickel - Robin And Marian (first Half For Mandolin) Chords
  26. Creek Nickel - Sabra Girl Chords
  27. Creek Nickel - Scotch & Chocolate Tabs
  28. Creek Nickel - Seven Wonders Chords
  29. Creek Nickel - Should've Known Better Tabs
  30. Creek Nickel - Smoothie Song Tabs
  31. Creek Nickel - Somebody More Like You Chords
  32. Creek Nickel - Speak Chords
  33. Creek Nickel - Spit On A Stranger Chords
  34. Creek Nickel - Starfish Tabs
  35. Creek Nickel - Stumptown Tabs
  36. Creek Nickel - Sweet Afton Chords
  37. Creek Nickel - The Fox Tabs
  38. Creek Nickel - The Hand Song Chords
  39. Creek Nickel - The Lighthouse Tale Chords
  40. Creek Nickel - This Side Chords
  41. Creek Nickel - Tomorrow Is A Long Time Chords
  42. Creek Nickel - Toxic (madolin) Tabs
  43. Creek Nickel - When In Rome Chords
  44. Creek Nickel - When You Come Back Down Tabs
  45. Creek Nickel - Young (accurate) Chords



cowboylyrics.com
All lyrics are property and copyright of their owners. All lyrics provided for educational purposes only.