John Denver, My Sweet Lady Tabs, Chords, Lyrics

John Denver, My Sweet Lady Tabs, Chords

 SITE MENU
 Request Tabs
 Add/Correct Tabs
 DMCA Policy
 Country Sheet Music
0

BROWSE LYRICS AND TABS BY ARTIST/BAND NAME: SEARCH HERE:
A B C D E F G H I J K L M N O P Q R S T U V W X Y Z #
 

John Denver - My Sweet Lady (Chords)


John Denver CD
John Denver Sheet music
John Denver Posters

My Sweet Lady

by John Denver
from John Denver's - Greatest Hits Volume 2
Tabbed by John De Leon
(juano@iastate.edu)





INTRO:   Slowly

e  ---9----------9--------------------------7-----------
B  ------10---------10------10--------8-----------8-----
G  ----------11---------11---------9-----9-----9-----9--
D  0----------------------------0-----------------------
A  -----------------------------------------------------
E  -----------------------------------------------------




e  ------------5-----------------------5--------
B  -------7-------7--------------7--------7-----
G  ----7-----7-------7--------6-----6-----------
D  --0-------------------0-0-----------------6--
A  ---------------------------------------------
E  ---------------------------------------------




VERSE:

e  ---9----------9------------------------7----------
B  ------10---------10------10-------8----------8----
G  ----------11---------11--------9-----9----9-----9-
D  0----------------------------0--------------------
A  --------------------------------------------------
E  --------------------------------------------------

1  La - dy,        are you   cry - ing,        do the

2  La - dy,        are you   hap - py,         do you

3  La - dy,        are you   cry - ing,        do the





e  -----------5----------5------3----------3--------
B  --------7----------7------------3----------3-----
G  -----7----------6----------4----------3----------
D  --0----------0----------0----------0-------------
A  -------------------------------------------------
E  -------------------------------------------------

   tears  be - long     to me           Did you

   feel   the  way       I do           are there

   tears  be - long     to me           Did you



e -----------2-----------2-----------0-----------2--
B --------3-----------2-----------3-----------2-----
G -----2-----------2-----------2-----------2--------
D --0-----------0-----------0-----------0-----------
A --------------------------------------------------
E --------------------------------------------------

   think      our  time      to - gether        was

   meanings   that you've    ne - ver           seen

   think      our  time      to - gether        was



e --------------0----------------------------------
B  ----------0-----0------------------2--2--3--5---
G  --------0----------0-----------2----------------
D ------2----------------2-------------------------
A  --2----------------------2--0-------------------
E  ------------------------------------------------

    all                      gone?

    be          -            fore

    all                      gone?





e  ---------9------9------9------------7-----7-----7-----
B  ------------10-----10-----10-----------8-----8-----8--
G  -----11--------------------------9--------------------
D  --0---------------------------0-----------------------
A  ------------------------------------------------------
E  ------------------------------------------------------

     La - dy,      you've been dream - ing       I'm as

     La - dy,       my sweet    la - dy          I  just

     La - dy,       my sweet    la - dy          I'm as




e  ------------5-----------5--------3-----------3-------
B  ---------7-----------7--------------3-----------3----
G  --- --7-----------6-----------4-----------3----------
D  ---0-----------0-----------0-----------0-------------
A  -----------------------------------------------------
E  -----------------------------------------------------

     close     as I       can be               and I

     can't    believe  it's true              and it's

     close     as I       can be               and I




e  --------2-----------2-----------------------------
B  -----------2-----------2--------0-----------2-----
G  -----2-----------2-----------------0-----------2--
D  --0-----------0--------------2-----------2--------
A  --------------------------2-----------0-----------
E  --------------------------------------------------


     swear  to  you    our time     has just     be -

     like     I've   never ever      loved       be -

     swear  to  you    our time     has just     be(Go to ENDING CHORD)





                                     ENDING CHORD:
e   ----------2-----------2----        ---2---
B   -------3-----------1-------        ---3---
G   ----2-----------2----------        ---2---
D   -0-----------0-------------        ---0---
A   ---------------------------        ---0---
E   ---------------------------        ---0---


     gun

     fore

                                        gun




CHORUS:

      G              A                    D     D7
    Close your eyes and rest your weary mind


        G             A                  D        D7
    I promise I will stay right here beside you

       G                   A                 D
    Today our lives were joined, became entwined


       Bm                  Bm7             Em   A
    I wish that you could know how much I love you







Chords for chorus:

       G     A    D    D7    Bm    Bm7    Em

e  ----3-----0----2----2-----2------2-----0-----
B  ----3-----2----3----1-----3------3-----0-----
G  ----0-----2----2----2-----4------2-----0-----
D  ----0-----2----0----0-----4------4-----2-----
A  ----5-----0----0----0-----2------2-----2-----
E  ----5----------0----0------------------2-----



Play: INTRO, 1 VERSE, CHORUS, 2 VERSE, CHORUS, 3 VERSE (ending with a D
chord)



-- 
John De Leon
juano@eng.iastate.edu


Denver John Tabs & ChordsDenver John Lyrics



Denver John Tabs, Tablatures, Chords, Lyrics

Buy Denver John CD
Denver John
Buy Denver John CD

  1. Denver John - Blow Up Your TV (Spanish Pipe Dream) Chords
  2. Denver John - 5 Constipated Men Chords
  3. Denver John - A Country Girl In Paris Chords
  4. Denver John - Alaska and Me Chords
  5. Denver John - American Child Chords
  6. Denver John - Ancient Rhymes Chords
  7. Denver John - And So It Goes Chords
  8. Denver John - And You Say That The Battle Is Over Chords
  9. Denver John - Annies Other Song Chords
  10. Denver John - Annies Song Chords
  11. Denver John - Around And Around Chords
  12. Denver John - Aspenglow Chords
  13. Denver John - Autograph Chords
  14. Denver John - Baby You Look Good To Me Tonight Chords
  15. Denver John - Back Home Again Chords
  16. Denver John - Berkeley Woman Chords
  17. Denver John - Blow Up Your Tv Chords
  18. Denver John - Boy From The Country Chords
  19. Denver John - Calypso Chords
  20. Denver John - Children Of The Universe Chords
  21. Denver John - Christmas For Cowboys Chords
  22. Denver John - Cool An' Green An' Shady Chords
  23. Denver John - Country Roads Chords
  24. Denver John - Country Roads 2 Chords
  25. Denver John - Country Roads 3 Chords
  26. Denver John - Cowboys Delight Chords
  27. Denver John - Darcy Farrow Chords
  28. Denver John - Diamond And Stone Chords
  29. Denver John - Dont Get Drunk Christmas Chords
  30. Denver John - Dont Get Drunk Christmas 2 Chords
  31. Denver John - Dreamland Express Chords
  32. Denver John - Eagle And The Hawk Chords
  33. Denver John - Eagles And Horses (i'm Flying Again) Chords
  34. Denver John - Everyday Chords
  35. Denver John - Farewell Andromeda Chords
  36. Denver John - Follow Me Chords
  37. Denver John - For Baby Chords
  38. Denver John - Foxfire Suite Chords
  39. Denver John - Goodbye Again Chords
  40. Denver John - Grandmas Feather Bed Chords
  41. Denver John - Grandmas Feather Bed 2 Chords
  42. Denver John - Hed Rather Be In Colorado Chords
  43. Denver John - How Can I Leave You Again Chords
  44. Denver John - I Guess He'd Rather Be In Colorado Chords
  45. Denver John - I Want To Live Chords
  46. Denver John - Id Rather Be A Cowboy Chords
  47. Denver John - Im Sorry Chords
  48. Denver John - Its A Sin To Tell A Lie Chords
  49. Denver John - Leavin' On A Jet Plane Chords
  50. Denver John - Leaving On A Jet Plane Chords
  51. Denver John - Let This Be A Voice Chords
  52. Denver John - Like a Sad Song Chords
  53. Denver John - Looking For Space Chords
  54. Denver John - Matthew Chords
  55. Denver John - Me And My Uncle Chords
  56. Denver John - My Sweet Lady Chords
  57. Denver John - Paradise Chords
  58. Denver John - Peace Carol Chords
  59. Denver John - Perhaps Love Chords
  60. Denver John - Poems Prayers Promises Chords
  61. Denver John - Ponies Chords
  62. Denver John - Rhymes And Reasons Chords
  63. Denver John - Rocky Mountain High Chords
  64. Denver John - Season Suite - Summer Chords
  65. Denver John - Shanghai Breezes Chords
  66. Denver John - Sing Australia Chords
  67. Denver John - Some Days Are Diamonds Chords
  68. Denver John - Some Days Are Diamonds 2 Chords
  69. Denver John - Song Of Wyoming Chords
  70. Denver John - Stonehaven Sunset Chords
  71. Denver John - Sunshine On My Shoulder Chords
  72. Denver John - Take Me Home Country Roads Chords
  73. Denver John - Thank God Im A Country Boy Chords
  74. Denver John - Thank God Im A Country Boy 2 Chords
  75. Denver John - The Eagle And The Hawk Chords
  76. Denver John - This Old Guitar Chords
  77. Denver John - To The Wild Country Chords
  78. Denver John - Today (cord And Tab) Chords
  79. Denver John - Trail Of Tears Chords
  80. Denver John - Two Different Directions Chords
  81. Denver John - When The River Meets The Sea Chords
  82. Denver John - Whose Garden Was This Chords
  83. Denver John - Wild Heart Looking For Home Chords
  84. Denver John - Wild Montana Skies Chords
  85. Denver John - Wildflowers In A Mason Jar Chords
  86. Denver John - Windsong Chords
  87. Denver John - You Say That The Battle Is Over Chords



cowboylyrics.com
All lyrics are property and copyright of their owners. All lyrics provided for educational purposes only.