Jerry Douglas, Like It Is Tabs, Chords, Lyrics

Jerry Douglas, Like It Is Tabs, Chords

 SITE MENU
 Request Tabs
 Add/Correct Tabs
 DMCA Policy
 Country Sheet Music
0

BROWSE LYRICS AND TABS BY ARTIST/BAND NAME: SEARCH HERE:
A B C D E F G H I J K L M N O P Q R S T U V W X Y Z #
 

Jerry Douglas - Like It Is (Chords)


Jerry Douglas CD
Jerry Douglas Sheet music
Jerry Douglas Posters
Tuning:standard

e|-------------------------------------b7-b76---------------------b7-b711b7|
B|------b11b11-12/13--r119119-9------69------9-9/11--------------69--------|
G|--1013-------11/12-----------108--8--------------108----8-108-8----------|
D|13-----------13/14----------------------------------9/10-----------------|
A|-------------------------------------------------------------------------|
E|-------------------------------------------------------------------------|
                                                                 (.6x)
e|---13--------------------------b1311--------b1311------------------------|
B|-----13----------------------------b1211--------b1211--------------------|
G|-------14151513-1310---------13---------1310---------131312/13----13-----|
D|--------------------13--13/15-----------------------------------13-------|
A|-------------------------------------------------------------------------|
E|-------------------------------------------------------------------------|

e|------79-9\--99-10--/11-111113-----------------------------------------b7|
B|----9------------------------b1111--------b11b11119--b11--------------69-|
G|---10---10\--66-7-----------------13---1013--------10--108----810108-8---|
D|--11---------------------------------13-------------------9/10-----------|
A|-11----------------------------------------------------------------------|
E|-0-----------------------------------------------------------------------|
                                                             (9x)
e|1113---12---------------------b1311-------b1311------------------------11|
B|x--b11---b129b10119-9-------------b1211-------b1211------------------1213|
G|x--------------------108-----13--------1310--------131312/13-----1113----|
D|x-----------------------13/15-------------------------------13\13--------|
A|-------------------------------------------------------------------------|
E|-------------------------------------------------------------------------|

e|----------------678------------------------------------------------------|
B|b88b88-6p56b7~-9---97b9-6------b86-6--------989---11b12---------------4--|
G|-------------------------8~-------6-86545~-----10-----13-12-10-----------|
D|--------------------------------------------------------------11------5--|
A|----------------------------------------------------------------1210-----|
E|-------------------------------------------------------------------------|

e|-4b66------------2p1-2/3-4678-42-----------------------1316--------------|
B|------9---9b1198----------------46---------------b12-16------------------|
G|----------------------------------b4----b4/---1113---------b1513---------|
D|6-6---65/6--------------------------64-46---13------------------131211---|
A|--------------------------------------6----------------------------------|
E|-------------------------------------------------------------------------|

e|--------------------9b1299-1112119-111211----11--98----------------------|
B|-------9-12-11--9/11---------------------1413------9----------9b11b11b11-|
G|----13-----------------------------------------------108--8/b9-----------|
D|9/10---6-9--8--10/12-----------------------------------------------------|
A|-------------------------------------------------------------------------|
E|-------------------------------------------------------------------------|

e|-----------------811~B131111~11\10791077--11----b12---b13----------------|
B|b11119-b11119-b11-----------------------9----b11---b12---b11119-11119----|
G|-------------------------------------------------------------------------|
D|-------------------------------------------------------------------------|
A|-------------------------------------------------------------------------|
E|-------------------------------------------------------------------------|


e|---b7-B10B12----91011--------------------------------911-----------------|
B|97-----------b12----b12-------b11----------11---9--b12---129-------------|
G|--8--------------------13--------13--------------------------10710-------|
D|-------------------------131211------131211---b9------------------11/13--|
A|------------------------------------------------------------------11/13--|
E|-------------------------------------------------------------------------|

 bass solo 1/2 minute 
   (...4x...)
e|---------------------------------------------------2------------86-2321--|
B|-11h12p11p9----9-------------9--9-------4------3p2----b7b776-876--8-----4|
G|------------910-10---98--8910-10-108--45-645------5--------------------5-|
D|-----------------------10-------------------6----------------------------|
A|-------------------------------------------------------------------------|
E|-------------------------------------------------------------------------|

e|--------8---8--11-----16-------------------------------------------------|
B|/8118-11-11--11----/15--------------9h11h12p11P9-119---------9-----------|
G|-------------------/15---9-8-9--810-----------------1098--8---108--1098--|
D|-------------------/15---111011-------------------------10-10----10------|
A|-------------------------------------------------------------------------|
E|-------------------------------------------------------------------------|
9
e|-------------------------------9-11-9---98----6--/99--9---8/9--10-/B12---|
B|-----------------9-------------9-9----11--11987--------------------------|
G|--8---1098---8910-10----------------1211---------------------------------|
D|10--10-----10--------9/10-10-----------------------11-11-10/11-12--------|
A|--------------------------11---------------------------------------------|
E|-------------------------------------------------------------------------|

e|-b1113---------------8--------7/8------7--7--b10--------------88/b10--10-|
B|------b119----------9-98--8911---11--11-11-11--------98----811------10---|
G|----------8--8~----10---10-------------------------10--10-88--------10---|
D|-----------10-----11-----------------------------11-------8---------10---|
A|-----------------11------------------------------------------------------|
E|----------------0--------------------------------------------------------|

e|1311------------------------------------b1311--------b1316---------------|
B|--13-b12-12/13--b1111911119-9---------------b1211--------b11b11----------|
G|--13-b12-12/13---------------108------13---------1310----------1313-12/13|
D|--13-----------------------------13/15------------------------------12/13|
A|-------------------------------------------------------------------------|
E|-------------------------------------------------------------------------|


e|-------------------b1311----------b1311----------------------------------|
B|-----------------------b1211----------b1211--------------1615------------|
G|13-1212-1111-1010-----------1310-13--------1313-12/13--13----1613--1111--|
D|13-1212-1111-1010------------------------------------13----------121111--|
A|-------------------------------------------------------------------------|
E|-------------------------------------------------------------------------|

e|--------------b1311----------b1311---------------------------------------|
B|--1512b13~--------b1111----------b1111-----------------------------------|
G|-11--------------------1310-13--------131310/13\-------------------------|
D|-11----------------------------------------------------------------------|
A|-------------------------------------------------------------------------|
E|-------------------------------------------------------------------------|



| /  slide up
| \  slide down
| h  hammer-on
| p  pull-off
| r  release bend
| ~  vibrato
| +  harmonic
| x  Mute note


Douglas Jerry Tabs & ChordsDouglas Jerry Lyrics



Douglas Jerry Tabs, Tablatures, Chords, Lyrics

Buy Douglas Jerry CD
Douglas Jerry
Buy Douglas Jerry CD

  1. Douglas Jerry - Abilene Gal Chords
  2. Douglas Jerry - Like It Is Chords



cowboylyrics.com
All lyrics are property and copyright of their owners. All lyrics provided for educational purposes only.