Handsome Family, Up Falling Rock Hill Tabs, Chords, Lyrics

Handsome Family, Up Falling Rock Hill Tabs, Chords

 SITE MENU
 Request Tabs
 Add/Correct Tabs
 DMCA Policy
 Country Sheet Music
0

BROWSE LYRICS AND TABS BY ARTIST/BAND NAME: SEARCH HERE:
A B C D E F G H I J K L M N O P Q R S T U V W X Y Z #
 

Handsome Family - Up Falling Rock Hill (Chords)


Handsome Family CD
Handsome Family Sheet music
Handsome Family Posters
note:
^ means hammer on - pull off
~ means a bend of some sort
/ means slide up
\ means slide down

Chords used in this song::
A 002220
D x00232
E 022100


A D A
Up Falling Rock Hill where the leaves swoop like bats
A D A
I shot my brother William five times in the back
A D A
"Have mercy, have mercy, dear Brother" he cried
A D A
But the wind had no mercy and neither did I
E D A
I watched as his blood ran through dead grass
E D A
I watched as the black ants crawled through his hands
A D A
Up falling Rock Hill the wind softly moaned
A D A
And down, down came I with blood on my clothes
E D A
Cicadas were hissing and the whippoorwill called
A D A
But the earth didn't open and the sky didn't fall
e----------------------------------------------------------
B----------------------------------------------------------
G----------------------------------------------------------
D--2------------------------------------------------------
A-----4-2-0-0----------0-2-2~2~-0-------------------
E----------------4-0-2------------------------------------
e----------------------------------------------------------
B----------------------------------------------------------
G----------------------------------------------------------
D--2--------------------------------------------------------
A-----4-2-0-0----------0-2~0---------------------------
E----------------4-0-2-------------------------------------
Finish with A E A


Handsome Family Tabs & ChordsHandsome Family Lyrics



Handsome Family Tabs, Tablatures, Chords, Lyrics

Buy Handsome Family CD
Handsome Family
Buy Handsome Family CD

  1. Handsome Family - After We Shot The Grizzly Chords
  2. Handsome Family - Drunk By Noon Chords
  3. Handsome Family - Giant Of Illinois Chords
  4. Handsome Family - My Sisters Tiny Hands Chords
  5. Handsome Family - So Much Wine Chords
  6. Handsome Family - The Snow White Diner Chords
  7. Handsome Family - Up Falling Rock Hill Chords
  8. Handsome Family - Weightless Again Chords
  9. Handsome Family - Woman Downstairs Chords



cowboylyrics.com
All lyrics are property and copyright of their owners. All lyrics provided for educational purposes only.