Rebecca Lynn Howard, Out Here In The Water Tabs, Chords, Lyrics

Rebecca Lynn Howard, Out Here In The Water Tabs, Chords

 SITE MENU
 Request Tabs
 Add/Correct Tabs
 DMCA Policy
 Country Sheet Music
0

BROWSE LYRICS AND TABS BY ARTIST/BAND NAME: SEARCH HERE:
A B C D E F G H I J K L M N O P Q R S T U V W X Y Z #
 

Rebecca Lynn Howard - Out Here In The Water (Tabs)


Rebecca Lynn Howard CD
Rebecca Lynn Howard Sheet music
Rebecca Lynn Howard Posters
Hi all.

This is my first attempt at a tab.  I think I got this right...
my only iffy part is the " 0-1--1-3 " part. 
                           3-3--3-3  
It's some sequence of chords, but I'm not quite sure what they are, except that the last pair of notes is G.
Any input is greatly appreciated.




E-1---1----------------------0-1--1-3-----------------0-1--1-3-
B-3-1-3-1--------------------3-3--3-3-----------------3-3--3-3-
G---------3-0-----0------------------------0-------------------
D-------------0-3---3-0----------------0-3---3-0---------------
A-----------------------1------------------------1-------------
E-------------------------3------------------------3-----------


E----------------0-1--1-3-----------------0-1--1-3-------------
B----------------3-3--3-3-----------------3-3--3-3-------------
G-----0------------------------0-------------------------------
D-0-3---3-0----------------0-3---3-0---------------------------
A-----------1------------------------1-------------------------
E-------------3------------------------3-----------------------


Howard Rebecca Lynn Tabs & ChordsHoward Rebecca Lynn Lyrics



Howard Rebecca Lynn Tabs, Tablatures, Chords, Lyrics

Buy Howard Rebecca Lynn CD
Howard Rebecca Lynn
Buy Howard Rebecca Lynn CD

  1. Howard Rebecca Lynn - Forgive Chords
  2. Howard Rebecca Lynn - I Don't Paint Myself Into Corners (no Capo) Chords
  3. Howard Rebecca Lynn - I Don't Paint Myself Into Corners Anymore Chords
  4. Howard Rebecca Lynn - I Need A Vacation Chords
  5. Howard Rebecca Lynn - It's My Job To Fall Chords
  6. Howard Rebecca Lynn - Jesus, Daddy And You Chords
  7. Howard Rebecca Lynn - Life Had Other Plans Chords
  8. Howard Rebecca Lynn - No One'll Ever Love Me Chords
  9. Howard Rebecca Lynn - Out Here In The Water Tabs
  10. Howard Rebecca Lynn - Sing 'cause I Love To Chords
  11. Howard Rebecca Lynn - What A Shame Chords



cowboylyrics.com
All lyrics are property and copyright of their owners. All lyrics provided for educational purposes only.