Irish Song/Celtic, Patty Tabs, Chords, Lyrics

Irish Song/Celtic, Patty Tabs, Chords

 SITE MENU
 Request Tabs
 Add/Correct Tabs
 DMCA Policy
 Country Sheet Music
0

BROWSE LYRICS AND TABS BY ARTIST/BAND NAME: SEARCH HERE:
A B C D E F G H I J K L M N O P Q R S T U V W X Y Z #
 

Irish Song/Celtic - Patty (Tabs)


Irish Song/Celtic CD
Irish Song/Celtic Sheet music
Irish Song/Celtic Posters

Patty Irish Song

                                                                          
E|----------3 p 2--3--0--------------------------0--h2h3p-2----------0h-2-|
B|--0----3---------------3--1--0-----------0--3-------------3--3--3-------|
G|-----0--------------------------2p------------------------------2-------|
D|-----------------------------------0--0-----------------0---------------|
A|----------2---------3--0--0---------------------------------------------|
E|--3--------------------------3--3-----3--------0------------------------|

                                                                           
                                                                           
E|-3--5--3--2p--0----------0---------------------------------------------|
B|----------------3--1h-3------3p-0-----------0--1-----3--0------0-------|
G|-----------------------------------0--0-h2--------2----------0---------|
D|----------0------------------------------------0-----------0-----------|
A|-2--------------0--0---------2-----------------------------------------|
E|--------------------------------------3-----------------3------3-------|


E|-----------------0----------------------------3p2-p-0--2-----------0----|
B|-0----0---1p-3--------3-p-0-------------0--3--------------3--3--3-----7-|
G|----0-----------------------0--2-----0----------------------------------|
D|-------------------------------0--0---------------------0---------------|
A|----------0-----------2-----------------------------------------0-------|
E|-3-----------------------------------3--------0-------------------------|
                                                                           
                                                                           
E|-3--7 -3--5-h2------0--2p-0----------------------------------------------|
B|----------------3-------------3-p-0-------------0--1-------3--0--------0-|
G|-------------------------------------0---0--2-----------2--------0-----0-|
D|----------0------------------------------2---------0----------------0----|
A|--------------------3---------2------------------------------------------|
E|-3------------------------------------------------------------3--------3-|

 This OLGA file is the author's own work and represents their interpretation  #
#research. Remember to view this file in Courier, or some other monospaced    #
#font.                       #
                                                                          

                                                                           
                                                                           


Irish Song/Celtic Tabs & Chords



Irish Song/Celtic Tabs, Tablatures, Chords, Lyrics

Buy Irish Song/Celtic CD
Irish Song/Celtic
Buy Irish Song/Celtic CD

  1. Irish Song/Celtic - Patty Tabs
  2. Irish Song/Celtic - The Swallow Tail Jig (mandolin) Tabs



cowboylyrics.com
All lyrics are property and copyright of their owners. All lyrics provided for educational purposes only.