Robert Earl Keen, Im Coming Home Tabs, Chords, Lyrics

Robert Earl Keen, Im Coming Home Tabs, Chords

 SITE MENU
 Request Tabs
 Add/Correct Tabs
 DMCA Policy
 Country Sheet Music
0

BROWSE LYRICS AND TABS BY ARTIST/BAND NAME: SEARCH HERE:
A B C D E F G H I J K L M N O P Q R S T U V W X Y Z #
 

Robert Earl Keen - Im Coming Home (Chords)


Robert Earl Keen CD
Robert Earl Keen Sheet music
Robert Earl Keen Posters


"I'm Coming Home"
by:  Robert Earl Keen

Live #2 Dinner



Here is  "I'm Coming Home" as it is played on the live #2 album.  The solo is 
not exactly correct, but you can play it like this.  Please e-mail me with 
corrections   jmd1026@aol.com

    
e----------3------------------------------------------------|-----------------
-----------------------------------------------|---------------0--------------
----
    
b----------3------------------------------------------------|----------3----3-
---------------------------------------------|-----------3-------3------------
--
    
g----------0----0----2^4----2^4----2----2----0----2--|--4~5--------------5----
4----0----4~5----4----2----0--|--4~5-----------------5----4---
    
d----------0------------------------------------------------|-----------------
-----------------------------------------------|------------------------------
-----
    
a----------2------------------------------------------------|-----------------
-----------------------------------------------|------------------------------
-----
    
e----3----3------------------------------------------------|------------------
----------------------------------------------|-------------------------------
----


    
[--------------------------------------|--------------------------------------
----------------------|-------------------------------------------------------
------
    
[--------------------------------------|--------------------------------------
----------------------|-------------------------------------------------------
------
    
[---0----2^4----2----2----0----2--|---2----4----4~5----4----0----2^4----2-----
-----0--|-------------------------------------------------------------
    
[--------------------------------------|--------------------------------------
-------------4-------|-----0^2----0-------------------------------------------
---
    
[--------------------------------------|--------------------------------------
----------------------|--------------------0^2----0---------------------------
----
    
[--------------------------------------|--------------------------------------
----------------------|------------------------------------3------------------
------



      G                               D            
    Packed my suitcase, I racked my brain
    
    Em                           C
    I bought a ticket on a late night train

      G                                D
    Took a taxi through the pouring rain

      C              D           G                
    I'm coming home to you                 

    Flew from Boston out to San Jose
    Saw our old friends in Monterrey Bay
    When they asked me if i'd like to stay i said
    I'm coming home to you


Chorus:

      G   D
    I'm coming home

      G                                         C
    Made up my mind thats what i'm gonna do

    G                       D
    Can't love nobody on a telephone

    C           D           G
    I'm coming home to you


    They through a party there from dust till dawn
    Seems like everybody knows old Sleepy John
    He said next time i better bring you along
    I'm coming home to you

    They got fresh caught salmon on a barbeque
    There were people jamming to the all night blues
    Life is good out in Santa Cruz
    But, I'm coming home to you

Chorus 

solo:

    
e-----------------------------------------------------------------------------
------------------------------------------------------------------------------
-------
    
b----6----5-----3~2-----------------------------------------3----5----5~6----5
----3---------------3~5~3---------------5~7~5----------------------
    
g---------------------------4~5----4----2----0----2~4-------------------------
-----------5----0-----------------5----0------------------7---------------
    
d-----------------------------------------------------------------------------
------------------------------------------------------------------------------
-------
    
a-----------------------------------------------------------------------------
------------------------------------------------------------------------------
-------
    
e-----------------------------------------------------------------------------
------------------------------------------------------------------------------
-------



    
e----7-----------7----------------------------------------------------|-------
--------------------------------------------------------|---------------------
-------
    
b----------5-------------5-----7~8-----7~8-----7-----5-----3---|----3^5-----3-
----------------------------------------------|----------------------------
    
g-----------------------------------------------------------------------|-----
---------------5-----4-----0-----4~5-----4------2--|---0^2-----4~5---------
    
d-----------------------------------------------------------------------|-----
---------------------------------------------------------|--------------------
--------
    
a-----------------------------------------------------------------------|-----
---------------------------------------------------------|--------------------
--------
    
e-----------------------------------------------------------------------|-----
---------------------------------------------------------|--------------------
--------



    
e----------0------------------------------------------------------------------
|-----------------------------------------------------------------------------
------- 
    
b---3-------------3----------------------------------------------------------|
------------------------------------------------------------------------------
-----
    
g--------------------------5-----4----0----2^4-----2-----2----0-----2---|----2
----4-----4~5-----4-----0------2^4-----2------------0------------------
    
d-----------------------------------------------------------------------------
-|----------------------------------------------------------4-----------------
---------
    
a-----------------------------------------------------------------------------
-|----------------------------------------------------------------------------
--------
    
e-----------------------------------------------------------------------------
-|----------------------------------------------------------------------------
--------




    I drove forever out to god knows where
    Come ten thirty there was no one there
    They couldn't pay me but i didn't care
    I'm coming home to you

    I'm feeling better since i got your card 
    I read it over and over when the road gets hard
    Nothing better than your old back yard
    I'm coming home to you

Chorus x2

    Packed my suitcase, I racked my brain
    I bought a ticket on a late night train
    Took a taxi through the pouring rain........

outro:

    e-----------------------------------------------------------------3-------
    b--0^1----0-----------------------------------------------------3------
    g------------------2------0--------------------------------------0------
    d---------------------------------2^4------0------2------4-----0-----
    a------------------------------------------------------------------2-----
    e------------------------------------------------------------------3------


Keen Robert Earl Tabs & ChordsKeen Robert Earl Lyrics



Keen Robert Earl Tabs, Tablatures, Chords, Lyrics

Buy Keen Robert Earl CD
Keen Robert Earl
Buy Keen Robert Earl CD

  1. Keen Robert Earl - 4th Of July Chords
  2. Keen Robert Earl - All I Have Is Today Chords
  3. Keen Robert Earl - Amarillo Highway Chords
  4. Keen Robert Earl - Barbeque Chords
  5. Keen Robert Earl - Beats The Devil Chords
  6. Keen Robert Earl - Billy Grey Chords
  7. Keen Robert Earl - Blow You Away Chords
  8. Keen Robert Earl - Broken End Of Love Chords
  9. Keen Robert Earl - Carolina Chords
  10. Keen Robert Earl - Christabel Tabs
  11. Keen Robert Earl - Copenhagen Chords
  12. Keen Robert Earl - Corpus Christi Bay Chords
  13. Keen Robert Earl - Cowboy Dream Chords
  14. Keen Robert Earl - Daddy Had A Buick Chords
  15. Keen Robert Earl - Dark Side Of The World Chords
  16. Keen Robert Earl - Death Of Tail Fitzsimmons Tabs
  17. Keen Robert Earl - Don't Turn Out The Light Chords
  18. Keen Robert Earl - Down That Dusty Trail Chords
  19. Keen Robert Earl - Dreadful Selfish Crime Chords
  20. Keen Robert Earl - Fallin' Out Chords
  21. Keen Robert Earl - Feelin Good Again Chords
  22. Keen Robert Earl - Flyin' Shoes Chords
  23. Keen Robert Earl - For Love Chords
  24. Keen Robert Earl - Front Porch Song Tabs
  25. Keen Robert Earl - Front Porch Song Chords
  26. Keen Robert Earl - Furnace Fan Chords
  27. Keen Robert Earl - Go On Downtown Chords
  28. Keen Robert Earl - Goin Down In Style Chords
  29. Keen Robert Earl - Goin' Nowhere Blues Chords
  30. Keen Robert Earl - Gringo Honeymoon Chords
  31. Keen Robert Earl - Hall Of Fame Chords
  32. Keen Robert Earl - Happy Holidays Yall Chords
  33. Keen Robert Earl - Hello New Orleans Chords
  34. Keen Robert Earl - I Gotta Go Chords
  35. Keen Robert Earl - I Still Miss Someone Chords
  36. Keen Robert Earl - I Want To Know Chords
  37. Keen Robert Earl - I Wonder Where My Baby Is Tonight Chords
  38. Keen Robert Earl - I Would Change My Life Chords
  39. Keen Robert Earl - If I Were King 2 Chords
  40. Keen Robert Earl - Im Coming Home Chords
  41. Keen Robert Earl - Its The Little Things Chords
  42. Keen Robert Earl - Jennifer Johnson And Me Chords
  43. Keen Robert Earl - Jesse With The Long Hair Chords
  44. Keen Robert Earl - Jesse With The Long Hair Chords
  45. Keen Robert Earl - Leavin' Tennessee Chords
  46. Keen Robert Earl - Levelland Chords
  47. Keen Robert Earl - Lonely Feeling Chords
  48. Keen Robert Earl - Long Chain Chords
  49. Keen Robert Earl - Loves A Word I Never Throw Chords
  50. Keen Robert Earl - Luann Chords
  51. Keen Robert Earl - Lynnville Train Chords
  52. Keen Robert Earl - Maria Chords
  53. Keen Robert Earl - Mariano Chords
  54. Keen Robert Earl - Merry Christmas Chords
  55. Keen Robert Earl - Mr. Wolf And Mamabear Chords
  56. Keen Robert Earl - My New Life Is Waiting Tabs
  57. Keen Robert Earl - My New Life Is Waiting In Old Mexico Chords
  58. Keen Robert Earl - New Life In Old Mexico Chords
  59. Keen Robert Earl - No Kinda Dancer Chords
  60. Keen Robert Earl - Not A Drop Of Rain Chords
  61. Keen Robert Earl - Not A Drop Of Rain (capo) Chords
  62. Keen Robert Earl - Oh Rosie Chords
  63. Keen Robert Earl - Out Here In The Middle Chords
  64. Keen Robert Earl - Over The Waterfall Chords
  65. Keen Robert Earl - Paint The Town Beige Chords
  66. Keen Robert Earl - Phuck It Chords
  67. Keen Robert Earl - Raven And The Coyote Chords
  68. Keen Robert Earl - Road Goes on Forever Chords
  69. Keen Robert Earl - Rolling By Chords
  70. Keen Robert Earl - Rose Hotel Chords
  71. Keen Robert Earl - Runnin With The Night Chords
  72. Keen Robert Earl - Shades Of Gray Chords
  73. Keen Robert Earl - Sing One For Sister Chords
  74. Keen Robert Earl - So I Can Take My Rest Chords
  75. Keen Robert Earl - Something That I Do Chords
  76. Keen Robert Earl - Song For Kathy Chords
  77. Keen Robert Earl - Sonoras Death Row Chords
  78. Keen Robert Earl - Still Without You/conclusion: Road To No Return Chords
  79. Keen Robert Earl - Still Without You/conclusion:road To No Return Chords
  80. Keen Robert Earl - That Buckin Song Chords
  81. Keen Robert Earl - The Armadillo Jackal Chords
  82. Keen Robert Earl - The Bluegrass Widow Chords
  83. Keen Robert Earl - The Bluegrass Widow (complete Lyrics) Chords
  84. Keen Robert Earl - The Coming Home Of The Son And The Brother Chords
  85. Keen Robert Earl - The Five Pound Bass Chords
  86. Keen Robert Earl - The Great Hank Tabs
  87. Keen Robert Earl - The Man Behind The Drums Chords
  88. Keen Robert Earl - The Raven And The Coyote Chords
  89. Keen Robert Earl - The Road Goes On And On Chords
  90. Keen Robert Earl - The Rose Hotel Chords
  91. Keen Robert Earl - The Traveling Storm Chords
  92. Keen Robert Earl - The Vacuum Cleaner Song Chords
  93. Keen Robert Earl - Then Came Lo Mein Chords
  94. Keen Robert Earl - Think It Over One Time Chords
  95. Keen Robert Earl - Throwin' Rocks Chords
  96. Keen Robert Earl - Tom Ames Prayer Chords
  97. Keen Robert Earl - Travelin Light Chords
  98. Keen Robert Earl - Undone Chords
  99. Keen Robert Earl - Village Inn Chords
  100. Keen Robert Earl - Walkin' Cane Chords
  101. Keen Robert Earl - Waves on the Ocean Chords
  102. Keen Robert Earl - What I Really Mean Chords
  103. Keen Robert Earl - Whenever Kindness Fails Chords
  104. Keen Robert Earl - Who'll Be Lookin' Out For Me Chords
  105. Keen Robert Earl - Wild Ones Chords
  106. Keen Robert Earl - Wild Wind Blows Chords
  107. Keen Robert Earl - Willie Chords
  108. Keen Robert Earl - Wireless In Heaven Chords
  109. Keen Robert Earl - Young Lovers Waltz Chords



cowboylyrics.com
All lyrics are property and copyright of their owners. All lyrics provided for educational purposes only.