Blaine Larsen, Off To Join The World Tabs, Chords, Lyrics

Blaine Larsen, Off To Join The World Tabs, Chords

 SITE MENU
 Request Tabs
 Add/Correct Tabs
 DMCA Policy
 Country Sheet Music
0

BROWSE LYRICS AND TABS BY ARTIST/BAND NAME: SEARCH HERE:
A B C D E F G H I J K L M N O P Q R S T U V W X Y Z #
 

Blaine Larsen - Off To Join The World (Chords)


Blaine Larsen CD
Blaine Larsen Sheet music
Blaine Larsen Posters
INTRO 
A         A/G#	     A/F#              A       A/F#    A/G# 
-------------------------------------------------------------------------- 
-----22------22--------22-----------------22------22-----22--------------- 
-----22------22--------22-----------------22------22-----22--------------- 
-----22------22--------22-----------------22------22-----22--------------- 
-0--------------------------------------0--------------------------------- 
-----------4---------2-------0--2--4------------4------2------0--2--4----- 
 
 
THIS REPEATS ALL THROUGH THE SONG 
 
A          A/G#    A/F#   A/E     A     
-----------------------------------------------------------0------ 
----22------22-------22-----22------22---------------------0------ 
----22------22-------22-----22------22-----------------1---------- 
----22------22-------22-----22------22---------------2------------ 
-0--------------------------------0------0--2--4------------------ 
----------4--------2-------0----------------------0--------------- 
 
E alt. bass 
------------------------------------------------------------------ 
----00--------00-----00------00-----00---------------------------- 
----11--------11-----11------11-----11---------------------------- 
----22--------22-----22------22-----22---------------------------- 
------------2--------------2-----------------------0--2--3--4----- 
-0-----------------0--------------0-------0--2--4----------------- 
 
 
A         A/G#    A/F#   A/E      A    
------------------------------------------------------------------- 
----22------22-------22-----22------22----------------------------- 
----22------22-------22-----22------22----------------------------- 
----22------22-------22-----22------22--------------0--2--3--4----- 
-0-------------------------------0---------0--2--4----------------- 
----------4--------2------0--------------------------------------- 
 
D          D/D#     A         F#m        B7        E              
-----22------22---------------------------------------------------------------------------------- 
-----33------33---------22-------22---------00--------00------22------22-------22---------------- 
-----22------22---------22-------22---------22--------11------22------22-------22---------------- 
-0---------1------------22-------44---------11--------22------22------22-------22---------------- 
---------------------0--------------------2---------2-------0------------------------------------ 
-------------------------------2------------------------------------4---------2---------0--2--4-- 


Larsen Blaine Tabs & ChordsLarsen Blaine Lyrics



Larsen Blaine Tabs, Tablatures, Chords, Lyrics

Buy Larsen Blaine CD
Larsen Blaine
Buy Larsen Blaine CD

  1. Larsen Blaine - Baby Don't Get Hooked On Me Chords
  2. Larsen Blaine - Chillin' Chords
  3. Larsen Blaine - How Do You Get That Lonely Chords
  4. Larsen Blaine - How Do You Get That Lonely (intro) Tabs
  5. Larsen Blaine - I Don't Know What She Said Chords
  6. Larsen Blaine - I Don't Wanna Work That Hard Tabs
  7. Larsen Blaine - I've Been In Mexico Chords
  8. Larsen Blaine - If Merle Would Sing My Song Chords
  9. Larsen Blaine - In My High School Chords
  10. Larsen Blaine - Let Alone You Chords
  11. Larsen Blaine - Lips Of A Bottle Chords
  12. Larsen Blaine - Off To Join The World Chords
  13. Larsen Blaine - Someone Is Me Chords
  14. Larsen Blaine - Spoken Like A Man Chords
  15. Larsen Blaine - Teaching Me How To Love You Chords
  16. Larsen Blaine - That's All I've Got To Say About That Chords
  17. Larsen Blaine - The Best Man Chords
  18. Larsen Blaine - The Man He'll Never Be Chords
  19. Larsen Blaine - Yessireebob Chords



cowboylyrics.com
All lyrics are property and copyright of their owners. All lyrics provided for educational purposes only.