Stoney Larue, Us Time Tabs, Chords, Lyrics

Stoney Larue, Us Time Tabs, Chords

 SITE MENU
 Request Tabs
 Add/Correct Tabs
 DMCA Policy
 Country Sheet Music
0

BROWSE LYRICS AND TABS BY ARTIST/BAND NAME: SEARCH HERE:
A B C D E F G H I J K L M N O P Q R S T U V W X Y Z #
 

Stoney Larue - Us Time (Chords)


Stoney Larue CD
Stoney Larue Sheet music
Stoney Larue Posters
Us Time

This is tabbed off of an acoustic performance he did on Texas Music TV. Enjoy!


INTRO:

         |------RIFF 1------|
      A            Bm     E             A
e:----0----2-0-----2----2/7-------------x-x-000-5----|
B:----0--------3-2-3----3/7----5-3-2-0--2-2h333-2----|
G:----2------------4----4/9------------22-2-222-2----|
D:----2------------4----4/9-------------2-2h444-2----|
A:----0------------4----2/7-------------0-0-022-0----|
E:----0------------2----2/7-------------0-0-022-0----|




VERSE 1

(Riff 1)              Bm
You look good in that dress
                                    |-Riff 2-|
   E                               A 
e:-7-------------------------------0-0-0-0----|
B:-7-------------------------------5-5-5-5----|
G:-9-------------------------------6-6h7-6----|
D:-9-------------------------------7-7-7-7----|
A:-7-------------------------------0-0-0-2----|
E:-7-------------------------------0-0-0-2----|
   I love the way you've done your hair

Riff 1         Bm
Yes girl I'm impressed
E                                    A (Riff 2)
At the whole thought of you standing there


PRE-CHORUS
E                             D 
And I got a night and special night planned for the two of us
E                                 D                  E
And I've taken the time to find a place where we can laugh and live it up

CHORUS
   A
e:-0-------------0----|
B:-5-------------5----|
G:-6-------------6----|
D:-7-------------6----|
A:-0-------------0----|
E:-0-------------0----|        D                   E                
I'm needin' some you, havin' a drink, shootin' the breeze just bein'
 
   A
e:-0------------0----------------2----4----x----x---:
B:-5------------5----------------3----5----7----9---:
G:-6------------6----------------2----4----7----9---: (From the beginning to here
D:-7------------6----------------4----6----7----9---:  is the main chorus riff)
A:-0------------0----------------2----4----5----7---:
E:-0------------0----------------x----x----x----x---:
  around you. A joke to make you smile     I'm  needin' some

   A
e:-0------------0----|
B:-5------------5----|
G:-6------------6----|
D:-7------------6----|
A:-0------------0----|
E:-0------------0----|
   me, actin' a fool

   D                     Bm
e:-2----------------2----2---|
B:-3----------------3----3---|
G:-2----------------2----4---|
D:-0----------------0----4---|
A:-0----------------4----2---|
E:-0----------------0----2---|
   Tryin to impress you

        E             Repeat Main Chorus Riff
Oh it's time for some us time


VERSE 2


I know you like it here
Oh baby I love it when you let loose
A little champagne on ice
will put us both in the mood

PRE-CHORUS
E                               D 
And I got a place just down the road where we can watch the sunrise
E                              D                E
And after a night of lovin' on you, I love that look in your eyes

CHORUS

BREAK
   A              E
e:-0----0----2----0----|
B:-5----5----3----0----|
G:-6----6----2----1----|
D:-7----6----4----2----|
A:-0----0----2----2----|
E:-0----0----x----0----|

MAIN CHORUS RIFF

CHORUS

Play Break progression twice while repeating
Oh it's time for some us time

Play Main Chorus Riff once more

OUTRO

   A
e:-0---|
B:-0---|
G:-2---|
D:-2---|
A:-0---|
E:-0---|
     (Riff 1)              Bm
      You look good in that dress

   E                                     A 
e:-7-------------------------------------0----|
B:-7-------------------------------------5----|
G:-9-------------------------------------6----|
D:-9-------------------------------------7----|
A:-7-------------------------------------0----|
E:-7-------------------------------------0----|
   I love the way you've done your hair  (END)



I didn't include strumming patterns, just the progression and breaks but it's all
there. Plus I didn't know the names of all the chords and some chords are barr 
variations of the major chords, so it's all tabbed out. If you see a chord by itself
without tabbing, for instance in the pre-chorus, its just a major chord.

x = mute string
/ = slide
h = hammer on


Hope ya like it 


Larue Stoney Tabs & ChordsLarue Stoney Lyrics



Larue Stoney Tabs, Tablatures, Chords, Lyrics

Buy Larue Stoney CD
Larue Stoney
Buy Larue Stoney CD

  1. Larue Stoney - 1977 Chords
  2. Larue Stoney - Bluebird Wine Chords
  3. Larue Stoney - Box #10 Chords
  4. Larue Stoney - Box N10 Chords
  5. Larue Stoney - Carolina Chords
  6. Larue Stoney - Closer To You Chords
  7. Larue Stoney - Crystal Eyes Chords
  8. Larue Stoney - Dirty Fightin' Love Chords
  9. Larue Stoney - Down In Flames Chords
  10. Larue Stoney - Downtown Chords
  11. Larue Stoney - Dresses Chords
  12. Larue Stoney - Erase All The Miles Chords
  13. Larue Stoney - Feet Don't Touch The Ground Chords
  14. Larue Stoney - Finelines Chords
  15. Larue Stoney - Forever Young Chords
  16. Larue Stoney - Goin Down The Road Fellin' Bad Chords
  17. Larue Stoney - Goin' Goin' Gone Chords
  18. Larue Stoney - Has Been Chords
  19. Larue Stoney - Has Been (intro) Chords
  20. Larue Stoney - Heather Grows Chords
  21. Larue Stoney - I've Got That Old Feeling Chords
  22. Larue Stoney - Idabel Blues Chords
  23. Larue Stoney - Idabel Blues (Intro) Chords
  24. Larue Stoney - Into The Mystic Chords
  25. Larue Stoney - Let Me Just Hold You Chords
  26. Larue Stoney - Long Black Veil Chords
  27. Larue Stoney - Look At Me Fly Chords
  28. Larue Stoney - Love You For Loving Me Chords
  29. Larue Stoney - Make It To The Mountains Chords
  30. Larue Stoney - No Longer Dying Chords
  31. Larue Stoney - Oklahoma Breakdown Chords
  32. Larue Stoney - Red Dirt Girls Chords
  33. Larue Stoney - Sharecropper Chords
  34. Larue Stoney - Shot Full Of Holes Chords
  35. Larue Stoney - Sirens Chords
  36. Larue Stoney - Take A Puff Chords
  37. Larue Stoney - Texas Moon Chords
  38. Larue Stoney - The Reaper Chords
  39. Larue Stoney - Tie My Boat Chords
  40. Larue Stoney - Train To Sanity Chords
  41. Larue Stoney - Travelin' Kind Chords
  42. Larue Stoney - Us Time Chords
  43. Larue Stoney - Velvet Chords
  44. Larue Stoney - Walk Away Chords



cowboylyrics.com
All lyrics are property and copyright of their owners. All lyrics provided for educational purposes only.