Johnny Lee, Yellow Rose Of Texas Tabs, Chords, Lyrics

Johnny Lee, Yellow Rose Of Texas Tabs, Chords

 SITE MENU
 Request Tabs
 Add/Correct Tabs
 DMCA Policy
 Country Sheet Music
0

BROWSE LYRICS AND TABS BY ARTIST/BAND NAME: SEARCH HERE:
A B C D E F G H I J K L M N O P Q R S T U V W X Y Z #
 

Johnny Lee - Yellow Rose Of Texas (Chords)


Johnny Lee CD
Johnny Lee Sheet music
Johnny Lee Posters

Yellow Rose of Texas
By: Johnny Lee and Lane Brody

Key of F

Intro:  F, Bb  F, Bb   F, Bb

(Guy)
There's a [F] yellow rose in Texas
[Bb]I'm [F]going home to see[Bb]
Though [C]other men have held her
Her heart belongs to me

(Lady)
[Bb]You've [F]traveled down some dusty roads
You've slept out in the rain
But this [Bb]yellow rose is [F]always here
When [F]you come [C]home a[F]gain

Chorus:
(Guy)  She [F]knows I've done some hard time[Bb]
(Lady) You [F]stumbled then you fell[Bb]
       I just [C]kept your pride from dying
(Guy)  You saved my sould from hell
(both) She's the [F]diamond of the desert[Bb]
       She's the [F]golden flower of spring
       She's the [Bb]yellow rose of [F]Texas
       She can [F]make a [C]man a [F]king


Instrumental solo: like the verse chords
 F                                   C
|---------------------------------------------------------------
|---------------------------------------------------------------
|---------------------------0-2--2-0-2-2-2-2-2-0-0------0-0h2-0-
|-------------0-----------3------------------------3-2-3--------
|-3-1-0-3-3-3---3-3-1-0-3---------------------------------------
|---------------------------------------------------------------

  C                                  Bb        F         C   F
|--------------------------------------------------------------
|--------------------------------------------------------------
|-3p0-2-2-2-2-3-2-2p0-----0-0-2--2p0-2-3-3-3-3-2-2p0-----2-0---
|---------------------3-3----------------------------3-0-----3-
|--------------------------------------------------------------
|--------------------------------------------------------------

(Guy)
There's a [F]yellow rose in Texas
[Bb]She [F]knows the dues I've paid
[Bb]And I'm [C]going home to tell her
I wish I'd never strayed

(Lady)
[Bb]You [F]couldn't see beyond yourself
[Bb]Your [C]pain and wounded pride
But [Bb]now you know the [F]truth is
in the [F]way you [C]feel in[F]side

Chorus

Yes the [Bb] yellow rose of [F]Texas can
[F]make a [C]man a [F]kind

outro solo:  play first part of solo (only [F])

Jason Wendtland


Lee Johnny Tabs & Chords



Lee Johnny Tabs, Tablatures, Chords, Lyrics

Buy Lee Johnny CD
Lee Johnny
Buy Lee Johnny CD

  1. Lee Johnny - Annie Chords
  2. Lee Johnny - Be There For Me Baby Chords
  3. Lee Johnny - Bet Your Heart On Me Chords
  4. Lee Johnny - Cherokee Fiddle Chords
  5. Lee Johnny - Hey! Bartender Chords
  6. Lee Johnny - It Sounds Like Love To Me Chords
  7. Lee Johnny - Last Chance For Me Chords
  8. Lee Johnny - Lookin For Love Chords
  9. Lee Johnny - Looking For Love Tabs
  10. Lee Johnny - One In A Million Chords
  11. Lee Johnny - Pickin' Up Strangers Chords
  12. Lee Johnny - Prisoner Of Hope Chords
  13. Lee Johnny - Rollin' Lonely Chords
  14. Lee Johnny - Save The Last Chance For Me Chords
  15. Lee Johnny - The Last Chance For Me Chords
  16. Lee Johnny - The Yellow Rose Of Texas Chords
  17. Lee Johnny - Yellow Rose Of Texas Chords



cowboylyrics.com
All lyrics are property and copyright of their owners. All lyrics provided for educational purposes only.