, New Delhi Freight Train Tabs, Chords, Lyrics

, New Delhi Freight Train Tabs, Chords

 SITE MENU
 Request Tabs
 Add/Correct Tabs
 DMCA Policy
 Country Sheet Music
0

BROWSE LYRICS AND TABS BY ARTIST/BAND NAME: SEARCH HERE:
A B C D E F G H I J K L M N O P Q R S T U V W X Y Z #
 

- New Delhi Freight Train (Tabs)


CD
 Sheet music
Posters
New Delhi Freight Train
Written by Terry Allen
Recorded by Little Feat

(Capo on 2)

Intro.:  (G7) x 4 bars

(Guitar)
e |------------------------|------------------------|------------------------|------------------------|
B |------------------------|------------------------|------------------------|------------------------|
G |3/4-5---3/4-------------|0--3/4-5---3/4\3/4------|3/4-5---3/4-------------|3/4-5---3/4-------------|
D |--------------0---0-----|------------------------|-------------0-0-0------|------------------------|
A |------------------------|------------------------|------------------------|------------------------|
E |------------------------|------------------------|------------------------|------------------------|

(Bass without capo)
G |------------------------|------------------------|------------------------|------------------------|
D |-----------------2-0----|------------------------|---------------0--------|-----------------2-0----|
A |0-----------0--------3--|0-0---------0-----------|0--------0--3----3/5-3--|-------3/4-----------3--|
E |------------------------|----0-------------------|------3-----------------|3-/5--------------------|

Now, some (G7)people are sayin' that I'm (C7)crazy
'Cause, my (D7)real name is just Jesse (G7)James
Well I left them half crocked, hard knocks to the Black Rock (C7)County
Just to (D7)ride on that New Delhi (G7)train

(Chorus)
I'm ridin' on that (G7)New Delhi freight train, I'm ridin' on that New Delhi line
I'm ridin' on that New Delhi freight train
And I left my (D7)love be-(G7)hind, left my (D7)love be-(G7)hind

Inst.:  (G7) x 4 bars (similar to the Intro.)

I'm (G7)just a country boy without (C7)angels
I'm (D7)just a country boy without (G7)gold
And I've (G7)been to silver cities, load of (C7)rainbows
Where they say, I (D7)pillaged and I killed and I (G7)stole

(Chorus)
I'm ridin' on that (G7)New Delhi freight train, ridin' on that New Delhi line
Ridin' on that New Delhi freight train
And I left my (D7)life be-(G7)hind, left my (D7)life be-(G7)hind

Inst.:  (G7) x 4 bars (similar to the Intro.)

Well they (G7)say I killed a man named Smil-(C7)ey Jeerdun
They say I (D7)killed him with one of my (G7)guns
Well I (G7)know that I did what I had not (C7)ought to
But I (D7)welcomed the run from what I'd done (G7)

Repeat Inst. and Chorusto fade


Little Feat Tabs & Chords



Little Feat Tabs, Tablatures, Chords, Lyrics

Buy Little Feat CD
Little Feat
Buy Little Feat CD

  1. Little Feat - 0h, Atlanta Chords
  2. Little Feat - New Delhi Freight Train Tabs
  3. Little Feat - Texas Twister Tabs



cowboylyrics.com
All lyrics are property and copyright of their owners. All lyrics provided for educational purposes only.