, Cool Country Riff Tabs, Chords, Lyrics

, Cool Country Riff Tabs, Chords

 SITE MENU
 Request Tabs
 Add/Correct Tabs
 DMCA Policy
 Country Sheet Music
0

BROWSE LYRICS AND TABS BY ARTIST/BAND NAME: SEARCH HERE:
A B C D E F G H I J K L M N O P Q R S T U V W X Y Z #
 

- Cool Country Riff (Tabs)


CD
 Sheet music
Posters
I DON'T KNOW WHERE THIS TUNE IS FROM, BUT IT SOUNDS LIKE SOMETHING OUT OF
A WESTERN MOVIE. THE FASTER IT IS PLAYED, THE BETTER IT SOUNDS.



E ---------------------------------------------------------
B ---------------------------------------------------------
G ---------------------------------------------------------
D ------------------2------2-----2-----2------2------2-----
A ------0--2--3--------------3------------3--------------3-
E --3------------------3-------------3-------------3-------

Continue:
E --------------------------------------------------
B --------------------------------------------------
G --------------2-----2------2----2-------2----2-
D --0--2--3-------------3-----------3------------
A -----------------3-----------3-------------3----
E --------------------------------------------------


Continue:
E ------------------------------
B ------------------------------
G ------------------------------
D -3--2--0------2-----2-------
A ------------3------------3---
E -------------------3----------..And it could go on forever; You get the idea



Misc. Tabs & Chords



Misc. Tabs, Tablatures, Chords, Lyrics

Buy Misc. CD
Misc.
Buy Misc. CD

  1. Misc. - Cool Country Riff Tabs
  2. Misc. - Dixieland Theme Tabs
  3. Misc. - Kingsford Charcoal Song Tabs
  4. Misc. - Kitty Cat Song Chords
  5. Misc. - When Johnny Comes Marching Home (tamu) Tabs
  6. Misc. - When The Saints Go Marching In Tabs



cowboylyrics.com
All lyrics are property and copyright of their owners. All lyrics provided for educational purposes only.