, When Johnny Comes Marching Home (tamu) Tabs, Chords, Lyrics

, When Johnny Comes Marching Home (tamu) Tabs, Chords

 SITE MENU
 Request Tabs
 Add/Correct Tabs
 DMCA Policy
 Country Sheet Music
0

BROWSE LYRICS AND TABS BY ARTIST/BAND NAME: SEARCH HERE:
A B C D E F G H I J K L M N O P Q R S T U V W X Y Z #
 

- When Johnny Comes Marching Home (tamu) (Tabs)


CD
 Sheet music
Posters
When Johnny Comes Marching Home

The Fightin' Texas Aggie Band at Texas A&M University plays this song.  
Got started with a little help from another site.  Enjoy.

Thanks and Gig 'em.


1----------------------------------------------------------
2----------------------------------------------------------
3----------------------------------------------------------
4-----5-5-5--7-8-7-8--5------------------------------------
5--5---------------------8--5--8---------------------------
6----------------------------------------------------------

1----------------------------------------------------------
2----------------------------------------------------------
3---------------------5-7---7------------------------------
4-----5-5-5--7-8-7-8------8--------------------------------
5--5-------------------------------------------------------
6----------------------------------------------------------


1---------------------------------------------------------
2---------------------------------------------------------
3-----5-777-5---555---------------------5-7-5-------------
4-7h8---------8-----888--7--5--7--7-7h8-------8-7-555---5-
5-----------------------------------------------------8---
6---------------------------------------------------------


Verses:

When Johnny comes marching home again      hurrah, hurrah!
WeŽll give him a hearty welcome then       hurrah, hurrah!
The men will cheer, the boys will shout, and the ladies they will all turn out
And weŽll all be gay when Johnny comes marching home



The old churchbell will peel with joy	   hurrah, hurrah!
To welcome home our darling boy            hurrah, hurrah!
The village lads and lassies say
With roses they will strew the way
And weŽll all be gay when Johnny comes marching home



Get ready for the jubilee                  hurrah, hurrah!
WeŽll give the hero three times three	   hurrah, hurrah!
The laurel wreath is ready now
To place upon his loyal brow
And weŽll all be gay when Johnny comes marching home



Let love and friendship on that day        hurrah, hurrah!
Their choicest treasures then display      hurrah, hurrah!
And let each one performe some part
To fill with joy the warriors heart
And weŽll all be gay when Johnny comes marching home




Misc. Tabs & Chords



Misc. Tabs, Tablatures, Chords, Lyrics

Buy Misc. CD
Misc.
Buy Misc. CD

  1. Misc. - Cool Country Riff Tabs
  2. Misc. - Dixieland Theme Tabs
  3. Misc. - Kingsford Charcoal Song Tabs
  4. Misc. - Kitty Cat Song Chords
  5. Misc. - When Johnny Comes Marching Home (tamu) Tabs
  6. Misc. - When The Saints Go Marching In Tabs



cowboylyrics.com
All lyrics are property and copyright of their owners. All lyrics provided for educational purposes only.