Pat Donohue, Kind Hearted Woman Tabs, Chords, Lyrics

Pat Donohue, Kind Hearted Woman Tabs, Chords

 SITE MENU
 Request Tabs
 Add/Correct Tabs
 DMCA Policy
 Country Sheet Music
0

BROWSE LYRICS AND TABS BY ARTIST/BAND NAME: SEARCH HERE:
A B C D E F G H I J K L M N O P Q R S T U V W X Y Z #
 

Pat Donohue - Kind Hearted Woman (Tabs)


Pat Donohue CD
Pat Donohue Sheet music
Pat Donohue Posters
I got a kind hearted woman
Do most anything in this world for me
I got a kind hearted woman
Do most anything in this worl for me

Well, but these evil hearted women
No, they will not let me be.  

I love my baby,
But my baby don't love me. Oooooh
I love my baby,
But my baby don't love me.

Well, I really love that woman
Can't stand to leave her be.

Well, you know there ain't but one thing
That makes this poor boy dream
I get worried 'bout how you treat me, baby
I begin to think: What pain!
The life don't feel the same
You break their heart
When you go on used to so and so's name.

She's a kind hearted woman
That just studies evil all the time
Ooooh, yeah, she's a kind hearted woman
That just studies evil all the time.

Well, my baby love to kill me
Just to have it on her mind.

Well, some day, some day
I will shake your hand goobye.
Ooooh, well, some day, some day
I will shake your hand goobye.

But I can't give you no more my lovin'
'Cause I just ain't satisfied




e|------ ------ ------ ------|------ ------ ------ ----/-|
B|---------------------------|-------------------------/-|
G|---------------------------|-------------------------/-|
D|---------------------------|---------------------------|
A|---------------------------|---------------------------|
E|---------------------------|---------------------------|



  A7            Adim
e|9-9-9- 9----- 8---9- 8-----|7---7- ----5-|
B|8-8-8--8------7------7-----|-------------|
G|9-9-9--9---9--8------8---/-|--7----5B6---|
D|---------------------------|-------------|
A|---------------------------|-------------|
E|---------------------------|-------------|



  A                           E7
e|----5- 5-5-5- 5---5- ----2-|----0- 0----- ------ ----/-|
B|---------------------------|-----------3-------------/-|
G|---------------------------|-------------------------/-|
D|-------5------4------3-----|---------------------------|
A|0--------------------------|---------------------------|
E|---------------------------|0------0------0------0-----|
                                                   I got a 


  A7                          Adim
e|9----- ------ ------ ----/-|8----- ------ ------ ------|
B|8------------------------/-|7--------------------------|
G|9------------------------/-|8--------------------------|
D|---------------------------|---------------------------|
A|0------0------0------0-----|0------0------0------0-----|
E|---------------------------|---------------------------|
  kind   hearted                     Do most 
             woman                     anything  
                                             in this 
                                                  world for
  A7            Adim          A7    Ad E7-9 A
e|9-9-9- 9----- 8---8- ----/-|910-9- 8---7- 5---5- ------|
B|8-8-8--8------7---7------/-|8------7---6---------------|
G|9-9-9--9---9--8---8------/-|9------8---7--5B6----------|
D|---------------------------|---------------------------|
A|0------0------0------0-----|0------0-------------0---0-|
E|---------------------------|---------------------------|
  me                                               I got a 


  D7
e|------ ------ ------ ------|------ ------ ------ ----/-|
B|1------1------1---1B2------|1-----------------1------/-|
G|2------2------2------2---2-|2-----------------2------/-|
D|0------0------0---------4--|0-----------------0--------|
A|---------------------------|---------------------------|
E|2------2---0--2------------|2------2---0--2------2-----|
  kind   hearted                     Do most 
             woman                     anything 
                                             in this
                                                  world for
  A
e|0----- ------ ----5- ------|------ ------|
B|5-------------4------4---5-|----5--------|
G|6-------------5------5-----|6------------|
D|---------------------------|-------------|
A|0------0------0------0-----|0------0---0-|
E|---------------------------|-------------|
  me                              Well, but 

                                         these 
  E5     E6     E5            D7
e|------ ------ ------ ------|------ ------ ------ ------|
B|---------------------------|----1-------------1--------|
G|---------------------------|----2---------2----------2-|
D|---------------------------|----0---------0----------0-|
A|2---2--4---4--2---2--------|---------------------------|
E|0---0--0---0--0---0--0---1-|2------2------2------2-----|
  evil hearted women                  No,   
                                        they will 
                                              not let me be.
  A                           E7
e|----5- 5-5-5- 5---5- ----232----0- 0---0- ------ ----/-|
B|---------------------------|----------3---3----------/-|
G|---------------------------|-------------------------/-|
D|2------5------4------3-----|---------------------------|
A|0--------------------------|---------------------------|
E|---------------------------|0------0------0------0-----|
                                                  I love my 


  A7                          Adim
e|9----- ------ ------ ----/-|8----- ------ ------ ------|
B|8------------------------/-|7--------------------------|
G|9------------------------/-|8--------------------------|
D|---------------------------|---------------------------|
A|0------0------0------0-----|0------0------0------0-----|
E|---------------------------|---------------------------|
  baby                                But my baby don't 
                                                   love me.

  A7                          A7    Ad E7-9 A
e|9-9-9- 9----- 8---8- ----/-|910-9- 8---7- 5---5- ------|
B|8-8-8--8------7---7------/-|8------7---6---------------|
G|9-9-9--9---9--8---8------/-|9------8---7--5B6----------|
D|---------------------------|---------------------------|
A|0------0------0------0-----|0------0------0------0-----|
E|---------------------------|-------------------------1-|
                                             Oooh, I love 
                                                        my

  D7     
e|------ ------ ------ ------|------ ------ ------ ----/-|
B|----1--1------1------------|----1-------------1------/-|
G|----2--2---2--2------------|----2-------------2------/-|
D|-----------0---------------|---------------------------|
A|---------------------------|---------------------------|
E|2------2------2------2---1-|2------2---1--2------2-----|
    baby                              But my baby don't 
                                                   love me.

  A
e|0----- ------ ----5- ------|----5- 5----- ------ ------|
B|5-------------4------4---5-|5---5--5---8--8--5---------|
G|6-------------5------5-----|6-----------------6--6-----|
D|---------------------------|---------------------------|
A|0------0---0--0------0-----|0------0------0------0-----|
E|---------------------------|---------------------------|
                                                   Well, I


  E5     E6     E5            D7
e|------ ------ ----0- ------|------ ------ ------ ------|
B|---------------------------|------------------1--------|
G|---------------------------|-------2----------2--2-----|
D|---------------------------|-------0-------------0-----|
A|2---2--4---4--2---2--------|---------------------------|
E|0---0--0---0--0---0--0---1-|2------2------2------2-----|
  really                        Can't stand 
      love that woman                    to leave her  be.

  A                               E7
e|------ ------ ------ ------|----0- 0---0- ------ ----/-|
B|---------------------------|----------3---3----------/-|
G|----2--2-2-2--2---2--2---2-|2------------------------/-|
D|-------5------4------3-----|2--------------------------|
A|0--------------------------|---------------------------|
E|---------------------------|-------0------0------0-----|
                                                  Well you


  A7                          Am6
e|0----- ------ ------ 0-----|0----- ------ ------ 0-----|
B|5--------------------5-----|1--------------------1-----|
G|6--------------------6-----|2--------------------2-----|
D|5--------------------5-----|4--------------------4-----|
A|---------------------------|---------------------------|
E|---------------------------|---------------------------|
  know there             that makes this             I get
         ain't but                   poor boy dream
                one thing
  A7            Am6           A7     Am6    A7
e|0----- ------ 0----- ------|0----- 0----- 0----- ------|
B|5-------------1------------|5------1------5------------|
G|6-------------2------------|6------2------6------------|
D|5-------------4------------|5---5--4------5------------|
A|---------------------------|---------------------------|
E|---------------------------|---------------------------|
  worried                     I   begin  to think: What 
    'bout how you  
                treat me, baby
  D7
e|8----- 7----- 5----- ------|--8--- --7--- 5----- ----/-|
B|---------------------------|-------------------------/-|
G|9------7------5B6--------9-|9---9--7---7--5B6--------/-|
D|---------------------7-----|---------------------7-----|
A|---------------------------|---------------------------|
E|---------------------------|---------------------------|
  pain!                   The life   don't  feel   the same


  A7
e|0----- ------ ----5- ------|----5- ------|
B|5-------------4------4---5-|-------------|
G|6-------------5------5----/|6------------|
D|--------------0------0-----|-------------|
A|0------0-------------------|0------0---0-|
E|---------------------------|-------------|
                                     You


  E5                          D7
e|------ ------ ----0- ------|------ ------ ------ ------|
B|---------------------------|----1----------------------|
G|---------------------------|--------------2---2------2-|
D|---------------------------|--------------0---0--------|
A|2---2--2---2--2------------|---------------------3B4---|
E|0---0--0---0--0------0---1-|2------2------2------2-----|
  break  their heart   When  
                         you go  on used to so and so's name.


  A                           E7
e|----5- 5-5-5- 5---5- ----2-|----0- 0---0- ------ ----/-|
B|---------------------------|----------3---3----------/-|
G|---------------------------|-------------------------/-|
D|-------5------4------3-----|---------------------------|
A|0--------------------------|---------------------------|
E|---------------------------|0------0------0------0-----|
                                                   She's a


  A7                          Adim
e|9----- ------ ------ ----9-|8----- ------ ------ ------|
B|8------------------------8-|7--------------------------|
G|9------------------------9-|8--------------------------|
D|---------------------------|---------------------------|
A|0------0------0------0-----|0------0------0------0-----|
E|---------------------------|---------------------------|
  kind   hearted               That just studies 
             woman                          evil  all the 
                                                        time.
  A7                          A7    Ad E7-9 A
e|9-9-9- 9----- 8---8- ----/-|910-9- 8---7- 5---5- ------|
B|8-8-8--8------7---7------/-|8------7---6---------------|
G|9-9-9--9---9--8---8------/-|9------8---7--5B6----------|
D|---------------------------|---------------------------|
A|0------0------0------0-----|0------0-------------0---0-|
E|---------------------------|---------------------------|
                                              Ooh, yes she's
                                                         a

  D7
e|------ ------ ------ ------|------ ------ ------ ------|
B|------------------1B2------|1-----------------1--------|
G|2------2-------------2---2-|----2-------------2------1-|
D|0------0----------------4--|------------------0--------|
A|---------------------------|---------------------------|
E|2------2------2------------|2------2---0--2------2-----|
  kind   hearted                That just studies 
             woman                          evil  all the 
                                                        time.
  A                                  A7         A
e|----5- ------ ------ ------|----5- 3---3- 3---5- ------|
B|--------------8B-----5-----|----2--2--5---2------------|
G|2--------/-9-----97--5B6---|----2--2------2------------|
D|-------------------------7-|---------------------------|
A|0------0-------------------|0------0------0------0---0-|
E|---------------------------|---------------------------|
                                                    Well, 


  E5     E6     E5            D7
e|------ ------ ----0- ------|------ ------ ------ ------|
B|---------------------------|----1-------------1--------|
G|---------------------------|----2---------2------2-----|
D|---------------------------|--------------0------------|
A|2---2--4---4--2------------|---------------------------|
E|0---0--0---0--0------0---1-|2------2------2------2---2-|
  my baby                             Just to have 
       love to kill me                          it on her 
                                                       mind.
  A                           E7                  E7-9 Adim
e|----5- 5-5-5- 5---5- ----232----0- 0---0- ----0- --7-8-|
B|---------------------------|----------3---3--------6-7-|
G|---------------------------|-----------------------7-8-|
D|2------5------4------3-----|---------------------------|
A|0--------------------------|---------------------------|
E|---------------------------|0------0------0------0-----|



  A7                          A7    Ad E7-9 A                           
e|9----- ------ ------ ----/-|910-9- 8---7- 5---5- ----/-|
B|8------------------------/-|8------7---6-------------/-|
G|9------------------------/-|9------8---7--5B6--------/-|
D|---------------------------|---------------------------|
A|0------0------0------0-----|0------0------0------0-----|
E|---------------------------|---------------------------|



  A7            Adim          A7    Ad E7-9 A 
e|9-9-9- 9----- 8---8- ----/-|910-9- 7-9-7- 5----- ------|
B|8-8-8--8------7---7------/-|8------5-------------------|
G|9-9-9--9---9--8---8------/-|9------7------5B6----------|
D|---------------------------|---------------------------|
A|0------0------0------0-----|0------0------0------0-----|
E|---------------------------|-------------------------1-|




  D7 
e|------ ------ ------ ------|------ ------ ------ ------|
B|----1B--------1------------|----1B--------1------------|
G|-------2---2-----2---------|----2--2---2-----2---------|
D|----------4-------0--------|----------4-------0--------|
A|---------------------------|---------------------3B4-0-|
E|2------2------2------2-----|2------2------2------------|



  A                                  A7         A
e|----5- ------ ------ ------|----5- 3---3- 3---5- ------|
B|2---2---------8------5-----|----2--2--5---2------------|
G|2------2-/-9-----97--5B6---|----2--2------2------------|
D|2------2-----------------7-|2--------------------------|
A|0------0-------------------|0------0------0------0---/-|
E|---------------------------|---------------------------|



  E7                          D7
e|----0- ------ 0----- ------|------ ------ 5---5- ------|
B|----0--3---3--3---3--------|----0--1--0---3---343------|
G|-------1--1----------------|---2---2---2---------5B6-2-|
D|---------------------------|---------------------------|
A|---------------------------|---------------------------|
E|0------0------0------0---1-|2------2-------------------|



  A                           E7
e|----5- 5-5-5- 5---5- ----232----0- 0---0- ------ ----/-|
B|---------------------------|----------3---3----------/-|
G|---------------------------|-------------------------/-|
D|-------5------4------3-----|---------------------------|
A|0--------------------------|---------------------------|
E|---------------------------|0------0------0------0-----|
                                                   Well, 
                                                       some

  A7                          Adim
e|9----- ------ ------ ----/-|8----- ------ ------ ------|
B|8------------------------/-|7--------------------------|
G|9------------------------/-|8--------------------------|
D|---------------------------|---------------------------|
A|0------0------0------0-----|0------0------0------0-----|
E|---------------------------|---------------------------|
  day, some day                      I will 
                                        shake your hand 
                                                     goobye.
  A7                                Ad E7-9 A 
e|9-9-9- 9----- 8---8- ----/-|910-9- 8---7- 5---5- ------|
B|8-8-8--8------7---7------/-|8------7---6---------------|
G|9-9-9--9---9--8---8------/-|9------8---7--5B6----------|
D|---------------------------|---------------------------|
A|0------0------0------0-----|0------0-------------0-----|
E|---------------------------|-------------------------1-|
                                              Oooh, Well, 
                                                       some

  D7
e|------ ------ ------ ------|------ ------ ------ ------|
B|----1---------1------------|----1-------------1--------|
G|----2--2---2--2------------|----2-------------2------2-|
D|-------0---0---------------|-------------------------0-|
A|---------------------------|---------------------------|
E|2------2------2------2---1-|2------2---1--2------2-----|
  day, some day                      Baby,I 
                                        will shake your 
                                                    hand 
  A                                                  goobye.
e|----5- ------ ----5- ----0-|0---0- ------|
B|----2---------4------4-----|5---5--------|
G|----2---------5------5-----|6---6--------|
D|----2---------4------------|-------------|
A|0------0------0------0-----|0------0---0-|
E|---------------------------|-------------|
                                      But I 
                                         can't
                                  (.
  E5     E6     E5            D7
e|------ ------ ----0- ------|------ ------ ------ ------|
B|------------------0--------|----1----------------------|
G|---------------------------|----2----------------------|
D|---------------------------|---------------------------|
A|2---2--4---4--2------------|---------------------------|
E|0---0--0---0--0------0---1-|2--------------------------|
  give                           'Cause 
    you no more my                    I just ain't satisfied
                lovin'                      (.
  A                           E7            A7
e|----5- 5-5-5- 5---5- ------|------ 0---2- 3----- ------|
B|---------------------------|----3---------2------------|
G|---------------------------|--------------2------------|
D|-------5------4---3------2-|--------------2------------|
A|0--------------------------|-------2------0------------|
E|---------------------------|0--------------------------|



  





        B  Bend
        R  Release
        /  Slide up
        \  Slide down
        H  Hammer-on
        P  Pull-off
        ~  Vibrato
        +  Harmonic
        x  Mute note
        .  Play note like a dot in standard notation
        ^  Ties two notes together
        (. Pause


Pat Donohue Tabs & Chords



Pat Donohue Tabs, Tablatures, Chords, Lyrics

Buy Pat Donohue CD
Pat Donohue
Buy Pat Donohue CD

  1. Pat Donohue - Kind Hearted Woman Tabs
  2. Pat Donohue - Old Lady Tabs
  3. Pat Donohue - The Other End of the Mississippi River Blues Chords



cowboylyrics.com
All lyrics are property and copyright of their owners. All lyrics provided for educational purposes only.