Pat Donohue, Old Lady Tabs, Chords, Lyrics

Pat Donohue, Old Lady Tabs, Chords

 SITE MENU
 Request Tabs
 Add/Correct Tabs
 DMCA Policy
 Country Sheet Music
0

BROWSE LYRICS AND TABS BY ARTIST/BAND NAME: SEARCH HERE:
A B C D E F G H I J K L M N O P Q R S T U V W X Y Z #
 

Pat Donohue - Old Lady (Tabs)


Pat Donohue CD
Pat Donohue Sheet music
Pat Donohue Posters
Here, she nagged me so bad I nearly lost my mind
So I went fishing and I left behind the old 
Lady-o-d-o-lady-o-d-old-lady.

She begged and she and she pleaded 'cause she wanted to come
But I can need other vacation from the old
Lady-o-d-o-lady-o-d-old-lady.

Well, I can't tune 'cause this beer there smokes the gals I'll hear
And I can get rowdy when I drink my beer
And I love to go fishing but still I keep wishing that the
Lady-o-lady-o-lady was here. Oh,

I never thought that I'd be singing this,
But I'm going home because I kind of miss the old
Lady-o-d-o-lady-o-d-old-lady.

                                     
  
e|------ ------ ------ ------|------ ------ ------ ------|
B|---------------------------|----5-------------5--------|
G|---------------------------|---------------------------|
D|------------------2--3---4-|5----------5---------5---4-|
A|---------------------------|---------------------------|
E|---------------------------|---------------------------|



  
e|------ ------ ------ ------|------ ------ ------ ------|
B|----3-------------3--------|----1--1---1---------------|
G|---------------------------|----0--0---0---------------|
D|3----------3---------3---1-|2---2--2---2---------------|
A|---------------------------|-----------------------0-2-|
E|---------------------------|--------------0-1-2--3-----|



  C
e|------ 0----- ------ 0-----|0----- 3---0- 5---3- ----0-|
B|-------1-------------1-----|1--------------------4-----|
G|-------0-------------0-----|0--------------------------|
D|-------2-------------2-----|2--------------------------|
A|3--------------------------|3--------------------------|
E|--------------3------------|---------------------------|



  
e|------ 0----- ------ 0-----|----0- ----0- 0----- ------|
B|1------1-------------1-----|----1------1--1------------|
G|-------0-------------0-----|----0------0--0------------|
D|-------2-------------2-----|----2------2--2------------|
A|3--------------------------|3--------------------0---2-|
E|--------------3------------|------------------3--------|
                                                Here,  she 


  
e|------ 0----- ------ 0-----|------ 0---0- ------ 0-----|
B|-------1-------------1-----|-------1---1---------1-----|
G|-------0-------------0-----|-------0---0---------0-----|
D|-------2-------------2-----|2------2---2---------2-----|
A|3--------------------------|---------------------------|
E|--------------3------------|--------------3------------|
  nagged            I  nearly lost my    mind          So 
       me so bad    

  F                           D7            Cdim
e|------ 1----- ------ ------|------ 2----- ----2- 2-----|
B|-------1-------------------|-------1----------1--1-----|
G|-------2-------------------|-------2----------2--2-----|
D|-------3------3------2-----|0-------------1------------|
A|---------------------------|---------------------------|
E|1--------------------------|---------------------------|
  I      went  fishing and I  left behind       the old 


  C                           G7
e|------ ------ ------ ------|------ ------ ------ ------|
B|----1-------------1--------|---------------------------|
G|---------------------------|----4-------------4--------|
D|2----------2---------2---1-|0----------3---------0-----|
A|---------------------------|-----------2---------------|
E|---------------------------|-----------3---------------|
  Lady       o      d  o      lady       o      d  old 


  C
e|------ 0----- ------ 0-----|0----- 3---0- 5---3- ----0-|
B|-------1-------------1-----|1--------------------4-----|
G|-------0-------------0-----|0--------------------------|
D|-------2-------------2-----|2--------------------------|
A|3--------------------------|3--------------------------|
E|--------------3------------|---------------------------|
  lady.                                                She 




e|------ 0----- ----0- 0-----|------ 0----- ----0- 0-----|
B|1------1----------1--1-----|-------1----------1--1-----|
G|-------0----------0--0-----|-------0----------0--0-----|
D|-------2----------2--2-----|-------2----------2--2-----|
A|3--------------------------|3--------------------------|
E|--------------3------------|--------------3------------|
  begged and she pleaded      wanted to  come          But 
                      'cause she

  F                           D7            Cdim
e|------ 1----- ------ ------|------ 2----- ----2- 2-----|
B|-------1-------------------|-------1----------1--1-----|
G|-------2-------------------|-------2----------2--2-----|
D|-------3------3------2-----|0-------------1------------|
A|---------------------------|---------------------------|
E|1--------------------------|---------------------------|
  I   can       need other vacation      from  the old


  C                           G7
e|------ ------ ------ ------|------ ------ ------ ------|
B|----1-------------1--------|---------------------------|
G|---------------------------|----4-------------4--------|
D|2----------2---------2---1-|0----------3---------0-----|
A|---------------------------|-----------2---------------|
E|---------------------------|-----------3---------------|
  Lady        o     d  o      lady       o      d  old 


  C
e|------ 0----- ------ ------|------ 0----- 0----- 0-----|
B|-------1-------------------|-------1------1------1-----|
G|-------0-------------------|-------0------3------3-----|
D|-------2-------------------|-------2------2------2-----|
A|3--------------------0---2-|3--------------------------|
E|--------------3------------|--------------3------------|
                                                Well, 
                                                   I   can't 
                                                   
  Fmaj7                                     Cdim
e|------ 1----- ------ 1-----|------ 1----- ------ ------|
B|-------1-------------1-----|-------1------1------1-----|
G|-------2-------------2-----|-------2------2------2-----|
D|2-------------2------------|2-------------1------1-----|
A|---------------------------|---------------------------|
E|---------------------------|--------------2------------|
  tune  'cause                gals I'll  hear          and
            this bird 
                    here smokes 
                           the 

  C
e|------ ------ ------ ------|------ ------ ------ ------|
B|1------1------3------------|-------1----------1--1-----|
G|0------0------0------------|-------0----------0--0-----|
D|2------2------3------------|-------2----------2--2-----|
A|3-------------2------0-----|3--------------------------|
E|--------------3------------|--------------3------------|
  I  can get    rowdy when I      drink         and    I
                                     my  beer


  D7
e|------ ------ ------ ------|------ ------ ------ ------|
B|-------3-------------3-----|-------3---3--3------3-----|
G|-------5-------------5-----|-------5---5--5------5-----|
D|-------4-------------4-----|-------4---4--4------4-----|
A|5--------------------------|5--------------------------|
E|--------------5------------|--------------5------------|
  love to go    fishing   but still 
                                  I  keep   wishing 
                                                   that the

  G
e|------ ------ ------ ------|------ ------ ------ ------|
B|----8-------------6--------|----5----------------3-----|
G|---------------------------|---------------------------|
D|9------9---8--7------7---6-|5------5---4--3------------|
A|---------------------------|---------------------------|
E|---------------------------|---------------------------|
  Lady   o      lady   o      lady   was    here.  Oh,


  C
e|------ ------ ------ ------|------ ------ ------ ------|
B|-------1----------1--------|-------1---1------1--1-----|
G|-------0----------0--------|-------0---3------3--3-----|
D|-------2----------2--------|-------2---2------2--2-----|
A|3--------------------0---2-|3--------------------------|
E|--------------3------------|--------------3------------|
  I      never  thought 
                   that I'd be   singing this,         but

  F                           D7            Cdim
e|1----- 1----- ------ ------|------ 2----- ----2- 2-----|
B|1------1-------------------|-------1----------1--1-----|
G|2------2-------------------|-------2----------2--2-----|
D|3------3------3------2-----|0-------------1------------|
A|---------------------------|---------------------------|
E|1--------------------------|---------------------------|
  I'm    going home because I    kind of miss   the old



  C                           G7
e|------ ------ ------ ------|------ ------ ------ ------|
B|----1-------------1--------|---------------------------|
G|---------------------------|----4-------------4--------|
D|2----------2---------2---1-|0----------3---------0-----|
A|---------------------------|-----------2---------------|
E|---------------------------|-----------3---------------|
  Lady       o      d  o      lady       o      d  old 



  C
e|------ ------ ------ ------|------ ------ ------ ------|
B|----5-------------5--------|----3-------------3--------|
G|---------------------------|----0--------------------0-|
D|5----------5---------5---4-|3----------3---------3-----|
A|---------------------------|---------------------------|
E|---------------------------|---------------------------|
  Lady

                                            (.
  
e|3H5P3- --0--- --0--- ------|------ ------ 0----- ------|
B|-------4------4------------|1-------------1------------|
G|-----------5------5--2---0-|----2---------3------------|
D|---------------------------|-------1---2--2------------|
A|---------------------------|--------------3------------|
E|---------------------------|---------------------------|




        B  Bend
        R  Release
        /  Slide up
        \  Slide down
        H  Hammer-on
        P  Pull-off
        ~  Vibrato
        +  Harmonic
        x  Mute note
        .  Play note like a dot in standard notation
        ^  Ties two notes together
        (. Pause


Pat Donohue Tabs & Chords



Pat Donohue Tabs, Tablatures, Chords, Lyrics

Buy Pat Donohue CD
Pat Donohue
Buy Pat Donohue CD

  1. Pat Donohue - Kind Hearted Woman Tabs
  2. Pat Donohue - Old Lady Tabs
  3. Pat Donohue - The Other End of the Mississippi River Blues Chords



cowboylyrics.com
All lyrics are property and copyright of their owners. All lyrics provided for educational purposes only.