Shenandoah, Jamie Bakers Love Slave Tabs, Chords, Lyrics

Shenandoah, Jamie Bakers Love Slave Tabs, Chords

 SITE MENU
 Request Tabs
 Add/Correct Tabs
 DMCA Policy
 Country Sheet Music
0

BROWSE LYRICS AND TABS BY ARTIST/BAND NAME: SEARCH HERE:
A B C D E F G H I J K L M N O P Q R S T U V W X Y Z #
 

Shenandoah - Jamie Bakers Love Slave (Chords)


Shenandoah CD
Shenandoah Sheet music
Shenandoah Posters

Jamie Baker's Love Slave
By:  Shenandoah

Key of F
Main Rif:
 Bb	    F	      Bb  1st ending (Bb)   2nd ending   (Bb)
|----------------------  |---------------  |---------------------------
|----------------------  |---------------  |---------------------------
|------------(Play 3x)   |---------------  |---------------------------
|-1-0------------------  |-1-0-----------  |-1-0-----1-0---------------
|-----3-1-----------0-1- |-----3-1-1-1-1-  |-----3-1-----3-1-----------
|---------3-1-1-1-3----  |---------------  |-----------------3(4)(3)-1-

 3rd ending (F)       A1:		      B1:
|-------------       |-------------------    |-------------------------
|-------------       |-------------------    |-------------------------
|-------------       |-------------------    |-------------------------
|-1-0---------       |-------------------    |-------------------------
|-----3-1-----       |---------------0-1-    |-------------0-----------
|---------3-1-       |-3(4)(3)-1-1-3-----    |-3(4)(3)-1-1h3-3-1-1-1-1-

          F			Bb		F  Bb
Well her love was a habit and I tried to kick it (A1)
     F				Bb	     F
So I went downtown and bought a one way ticket (B1)
	F		   Bb		 F Bb
Then I road that greyhound down to makeup (A1)
	F			 Bb		   F
Then I hitchhiked back 'cause my heart was breakin' (B1)


Chorus
F	 Bb	   F   Dm	F	Bb	      Bb   Bb
Oh now I see, it's destiny.  I can't be free, I'm her love slave
(solo-2nd)
		F        Bb  F  Bb  F  Bb
Jamie Baker's love slave

	 F		 Bb		        F  Bb
When I'm close to her my heart starts a thumpin' (A1)
     F			Bb			F
When she says froggie I can't help but jumpin'  (B1)
	   F			   Bb          F  Bb
She's got a hold on me and there's no escapin' (A1)
	    F			Bb	    F	
Yeah it's a ball and chain of my own makin' (B1)

chorus-main riff repeat first part only twice(no other ending on it)

	C		   F			C		   F
Yeah I used to go boating, used to go fishin', used to go drinkin' too
     C			    F
But since I been exposed to her kinda kissin'
	Bb		     C       F   Bb F    Dm F    Bb
There's nothin' else I wanna do.   |-----------------------
				   |-----------------------
			 	   |-5-5/10---------5-5/10-
slide chords- "yeah hoo!"	   |-3-3/-8-10-10/7-3-3/-8-	
				   |---------8--8/5--------
				   |-----------------------
Bb							F  
Well I'm her slave,(start main solo...)  Jamie Baker's love slave
(...use 3rd ending)
				Jason A. Wendtland


Shenandoah Tabs & ChordsShenandoah Lyrics



Shenandoah Tabs, Tablatures, Chords, Lyrics

Buy Shenandoah CD
Shenandoah
Buy Shenandoah CD

  1. Shenandoah - 2 Dozen Roses Tabs
  2. Shenandoah - All Over But The Shoutin' Chords
  3. Shenandoah - Church On Cumberland Road Chords
  4. Shenandoah - Daddy's Little Man Chords
  5. Shenandoah - Darned If I Don't, Danged If I Do Chords
  6. Shenandoah - Ghost In This House Chords
  7. Shenandoah - Ghost In This House 2 Chords
  8. Shenandoah - Hey Mister (I Need This Job) Chords
  9. Shenandoah - I Wanna Be Loved Like That Chords
  10. Shenandoah - If Bubba Can Dance Chords
  11. Shenandoah - Ill Go Down Loving You Chords
  12. Shenandoah - It Ain't Love Until It Hurts Chords
  13. Shenandoah - Jamie Bakers Love Slave Chords
  14. Shenandoah - Mama Knows Chords
  15. Shenandoah - Moon Over Georgia Chords
  16. Shenandoah - Next To You Next To Me Chords
  17. Shenandoah - Rock My Baby Chords
  18. Shenandoah - She Could Care Less Chords
  19. Shenandoah - She Doesn't Cry Anymore Chords
  20. Shenandoah - Somewhere In The Vicinity Of The Heart Chords
  21. Shenandoah - Sunday In The South Chords
  22. Shenandoah - The Church On Cumberland Road Tabs
  23. Shenandoah - The Moon Over Georgia Chords
  24. Shenandoah - Two Dozen Roses Chords
  25. Shenandoah - Under The Kudzu Chords
  26. Shenandoah - What Children Believe Chords



cowboylyrics.com
All lyrics are property and copyright of their owners. All lyrics provided for educational purposes only.