Frank Turner, Better Half Tabs, Chords, Lyrics

Frank Turner, Better Half Tabs, Chords

 SITE MENU
 Request Tabs
 Add/Correct Tabs
 DMCA Policy
 Country Sheet Music
0

BROWSE LYRICS AND TABS BY ARTIST/BAND NAME: SEARCH HERE:
A B C D E F G H I J K L M N O P Q R S T U V W X Y Z #
 

Frank Turner - Better Half (Chords)


Frank Turner CD
Frank Turner Sheet music
Frank Turner Posters
intro

Dm, C, G

e--1-----3----------------------------------------------------|
b--3--1--3----------------------------------------------------|
g--2--0--0----------------------------------------------------|
d--0--2--0----------------------------------------------------|
a-----3--2----------------------------------------------------|
e--------3----------------------------------------------------|
verse

Em Am x2 then Bm, C, G, F, C

e-0--0-----2-----3--1-----------------------------------------|
b-0--1-----3--1--3--1--1--------------------------------------|
g-0--2-----4--0--0--2--0--------------------------------------|
d-2--2-x2--4--2--0--3--2--------------------------------------|
a-2--0-----2--3--2--3--3--------------------------------------|
e-0--------------3--1-----------------------------------------|
chorus

Dm, C, G

e--1-----3----------------------------------------------------|
b--3--1--3----------------------------------------------------|
g--2--0--0----------------------------------------------------|
d--0--2--0----------------------------------------------------|
a-----3--2----------------------------------------------------|
e--------3----------------------------------------------------|

bridge

E, F, C, Bb, F

e--0--1------------1------------------------------------------|
b--0--1------1--3--1------------------------------------------|
g--1--2------0--3--2------------------------------------------|
d--2--3--x3--2--3--3--x3--------------------------------------|
a--2--3------3--1--3------------------------------------------|
e--0--1------------1------------------------------------------|
last chorus

G, F, C

e--3--1-------------------------------------------------------|
b--3--1--1----------------------------------------------------|
g--0--2--0----------------------------------------------------|
d--0--3--2----------------------------------------------------|
a--2--3--3----------------------------------------------------|
e--3--1-------------------------------------------------------|


Turner Frank Tabs & ChordsTurner Frank Lyrics



Turner Frank Tabs, Tablatures, Chords, Lyrics

Buy Turner Frank CD
Turner Frank
Buy Turner Frank CD

  1. Turner Frank - Back To Sleep Chords
  2. Turner Frank - Ballad For Me And My Friends Chords
  3. Turner Frank - Better Half Chords
  4. Turner Frank - Casanova Lament Chords
  5. Turner Frank - Dancing Queen Chords
  6. Turner Frank - Dans Song Chords
  7. Turner Frank - Eulogy Chords
  8. Turner Frank - Faithful Son Chords
  9. Turner Frank - Front Crawl Chords
  10. Turner Frank - Heartless Bastard Motherfucker Chords
  11. Turner Frank - I Knew Prufrock Before He Got Famous Chords
  12. Turner Frank - I Really Dont Care What You Did On Your Gap Year Chords
  13. Turner Frank - Long Live The Queen Chords
  14. Turner Frank - Nashville Tennessee Chords
  15. Turner Frank - Once We Were Anarchists Chords
  16. Turner Frank - Outdoor Type Chords
  17. Turner Frank - Photosynthesis Chords
  18. Turner Frank - Real Damage Chords
  19. Turner Frank - Romantic Fatigue Chords
  20. Turner Frank - Sea Legs Chords



cowboylyrics.com
All lyrics are property and copyright of their owners. All lyrics provided for educational purposes only.