Doc Watson, Nashville Picking Tabs, Chords, Lyrics

Doc Watson, Nashville Picking Tabs, Chords

 SITE MENU
 Request Tabs
 Add/Correct Tabs
 DMCA Policy
 Country Sheet Music
0

BROWSE LYRICS AND TABS BY ARTIST/BAND NAME: SEARCH HERE:
A B C D E F G H I J K L M N O P Q R S T U V W X Y Z #
 

Doc Watson - Nashville Picking (Tabs)


Doc Watson CD
Doc Watson Sheet music
Doc Watson Posters
Nashville Picking
Doc Watson




                           D                          G                        
E||---------------------|--5-------5---------------|--7-----------------------|
B||---------------------|------6h7-----------------|------6h5-----------------|
G||---------------4--7--|--------------------4--7--|-----------7---7----4--7--|
D||------------7--------|------------7----7--------|-----------------7--------|
A||---------------------|--------------------------|--------------------------|
E||---------------------|--------------------------|--------------------------|


  D            A              D                           
--5-------5----------------|-----------------------------|
------6h7--------6--5-0----|--3--3-3-3-3-3-3-3-----------|
------------------------4--|-----------------------4--7--|
------------7--------------|--------------------7--------|
---------------------------|-----------------------------|
---------------------------|-----------------------------|


  D                           G                         
--5--------5--------5-5----|--7--------7--------7-7----|
------6h7------6h7---------|------6h5------6h5---------|
------------------------7--|------------------------7--|
---------------------------|---------------------------|
---------------------------|---------------------------|
---------------------------|---------------------------|


  D            A              D                              
--5-------5----------------|--------------------------------|
------6h7--------6--5-5----|--3--3-3-3-3-3-3-3--3-3-3-3-3-3-|
------------------------4--|--------------------------------|
------------7--------------|--------------------------------|
---------------------------|--------------------------------|
---------------------------|--------------------------------|


  G                                  D                          
----------------------------------|------5-----5------5-----5--|
--6-3-3-5-3-3-6-3-3-5-3-3-6-3-5-3-|--6/7-----7----6/7-----7----|
----------------------------------|----------------------------|
----------------------------------|----------------------------|
----------------------------------|----------------------------|
----------------------------------|----------------------------|


  E                          A                          
--7--7--6-7---7--7--6-7---|--9---9---8--8--7--7--9-----|
--9--9--8-9---9--9--8-9---|--10--10--9--9--8--8--10----|
--------------------------|----------------------------|
--------------------------|----------------------------|
--------------------------|----------------------------|
--------------------------|----------------------------|


  D                                  G                      
--5-7-5-0-5-7-5-0-5-7-5-0-5-7-5-0-|--5h7--------5h7--------|
----------------------------------|------6----------6------|
----------------------------------|------------------------|
----------------------------------|------------------------|
----------------------------------|------------------------|
----------------------------------|------------------------|


  D           A               D                         
---------------------------|---------------------------|
--6--5--3---0-1--0---------|---------------------------|
--------------------2------|---------------------------|
-----------------------3/0-|--0-0----------------------|
---------------------------|------3-3-0-0-4-4-5--------|
---------------------------|---------------------------|


                                                                      
----------------------------------|----------------------------------|
----------------------------------|----------------------------------|
----------------------------------|----------------------------------|
----0-2-0-3-0-----0-0-2-0-3-0-----|--0-0-2-0-3-0-----0-0-2-0-3-0-----|
--5-----------2-0-------------2-0-|--------------2-0-------------2-0-|
----------------------------------|----------------------------------|


                                                                 
---------------------------------|------------------------------|
---------------------------------|------------------------------|
---------------------------------|------------------------------|
--0--2-3-4-0-----4-3-2-0---------|------------------------------|
-------------2-0---------2-0-0-4/|--5--5-5-5-5-4/5---5-5-5-5--4/|
---------------------------------|------------------------------|


                                                                      
----------------------------------|----------------------------------|
----------------------------------|----------------------------------|
----------------------------------|----------------------------------|
----0-2-0-3-0-----0-0-2-0-3-0-----|--0-0-2-0-3-0-----0-0-2-0-3-0-----|
--5-----------2-0-------------2-0-|--------------2-0-------------2-0-|
----------------------------------|----------------------------------|


                                                                   
---------------------------------|--------------------------------|
---------------------------------|--------------------------------|
---------------------------------|--------------------------------|
--0--2-3-4-0-----4-3-2-0---------|--------------------------------|
-------------2-0---------2-0-0-3-|--5--5-5-5-5-4/5-5--5-5-5-5-----|
---------------------------------|----------------------------0-2-|


                                                                   
--------------------------------|---------------------------------|
--------------------------------|---------------------------------|
--------------------------------|------2-----2-----2-----2-----2--|
-----------0-2-0-3-2-0-3-2-0----|--2-4---2-4---2-4---2-4---2-4----|
-----0-1-2-------------------2--|---------------------------------|
--3-----------------------------|---------------------------------|


                                                              
------------------------------|------------------------------|
------------------------------|------------------------------|
------------------------------|-----------------2----2----2--|
-----------------2----2----2--|-----------2-4-2----4----4----|
-----------2-4-2----4----4----|--0--2-3-4--------------------|
--0--2-3-4--------------------|------------------------------|


                                                                
----------------------------------|----------------------------|
----------------------------------|----------------------------|
--2-4-2---2-4-2---2-4-2---2-4-2---|--2h4-2--------2h4-2--------|
--------4-------4-------4-------4-|--------3------------3------|
----------------------------------|----------------------------|
----------------------------------|----------------------------|


                                                       
--------------------------|----------------------10-7-|
--------------------------|---------------------------|
--------------------------|---------------------------|
--4--2--0---0-------------|---------------------------|
--------------3--2--0--4--|--5----5-5-5-5-5-----------|
--------------------------|---------------------------|


                                                                     
--10--10--10--7--10--7--10-7------|---------------------------------|
-----------------------------10-7-|--9/10---9/10---9/10---10-10-10--|
----------------------------------|--9/10---9/10---9/10---10-10-10--|
----------------------------------|---------------------------------|
----------------------------------|---------------------------------|
----------------------------------|---------------------------------|


                                                                 
-----------------------------------


Watson Doc Tabs & ChordsWatson Doc Lyrics



Watson Doc Tabs, Tablatures, Chords, Lyrics

Buy Watson Doc CD
Watson Doc
Buy Watson Doc CD

  1. Watson Doc - Alberta Chords
  2. Watson Doc - Beaumont Rag Chords
  3. Watson Doc - Deep River Blues Chords
  4. Watson Doc - Doc's Guitar - Old Aunt Dinah Tabs
  5. Watson Doc - Girl In Blue Velvet Band Chords
  6. Watson Doc - Intoxicated Rat Chords
  7. Watson Doc - Mama Don't Allow No Music Chords
  8. Watson Doc - Nashville Picking Tabs
  9. Watson Doc - Nothin' To It Tabs
  10. Watson Doc - Tennessee Rag Tabs
  11. Watson Doc - Tennessee Stud Chords



cowboylyrics.com
All lyrics are property and copyright of their owners. All lyrics provided for educational purposes only.